#70016  by enardi
 Tue Dec 15, 2009 4:03 pm
does anybody have any idea what weir is doing here? ive been messing around with stuff like this for getting back to the e and e7's during the song. am i even remotely on the right track here?

E|-----------------
B|12--10--9--9-----
G|11--11--9--7-----
D|-------------9-----
A|-----------------
E|-----------------

and
E|--14--12--12----
B|--12--10---9----
G|---------------11-
D|----------------
A|----------------
E|----------------
 #70017  by strumminsix
 Tue Dec 15, 2009 4:26 pm
enardi wrote:does anybody have any idea what weir is doing here? ive been messing around with stuff like this for getting back to the e and e7's during the song. am i even remotely on the right track here?

E|-----------------
B|12--10--9--9-----
G|11--11--9--7-----
D|-------------9-----
A|-----------------
E|-----------------

and
E|--14--12--12----
B|--12--10---9----
G|---------------11-
D|----------------
A|----------------
E|----------------
I think you are on the right page for starting. Bobby goes way out there sometimes. The E to the E7 is critical. From there I start to add in notes to modulate the chord, work in some diminished, etc.
 #72728  by LazyLightnin
 Wed Jan 27, 2010 9:19 am
for the Bob part over Jerry's main theme licks i play a Bm - E7. strike em hard like in the later 80's versions. you can hear it as far back as reckoning too.