#5368  by shakedown_04092
 Sat May 06, 2006 2:49 pm
Took me a while to finally post this. I think it's pretty close, but feel free to nofity me of changes where needed. I only got to the first half of the solo, but hopefully and helps, and maybe somebody else can do the second half. Also, I hope this "fits" into the text - Iknow when some folks post tab in here it's too big for the screen. Anyways, enjoy!



So Many Roads

From 10/1/94 version

Intro

E---2^3--3---2---3^2--------------------------------------------
B----------------------1------3------5-------5------6-------8---
G---------------------------------------------------------------
D---0-----0---0---0------2/3----3/5-----5------3/5-----5/7------
A---------------------------------------------------------------
E---------------------------------------------------------------

Eb Bb
Thought I heard a blackbird singin'
F Dm
Up on Bluebird Hill
Eb Bb F
Call me a whinin' boy if you will

E ----------------------------
B ----------------------------
G ----------------------------
D -------3-5-3----3h5p3-------
A ---3h5--------5-------5-6---
E ----------------------------


Eb Bb
Born where the sun don't shine
F Dm
And I don't deny my name
F C Bb
Got no place to go, ain't that a shame

E -------------------
B -------------------
G -------------3-----
D ---------1^5-------
A ---1p0h1-----------
E -------------------


Eb Bb
Thought I heard that KC whistle
F Dm
Moanin? sweet and low

E --------------
B ---------4~---
G ---5-3h5------
D --------------
A --------------
E --------------

Eb Bb F (repeat riff above)
Thought I heard that KC when she blow


Eb Bb
Down where the sun don't shine
F Dm
Underneath the Kokomo
F
E ---------------1---1---
B -------------------1---
G -------------------2---
D -----------------2h3---
A ------3h5-3h5~---------
E ---3h5-----------------

F C Bb
Whinin? boy - got no place to go


Gm C
So many roads I tell you
A7 Dm C
So many roads I know
Bb F Eb(maj7)
All I want is one to take me home
Gm C
Mountain high, river wide
A7 Dm C
So many roads to ride
Bb F Eb(maj7) Dm C
So many roads - so many roads

E ---------------------3--2--0--3p2-----------------------------------------
B -------4-------------3--3--0--3-3---1-----3-------5~----5-------6-------8~
G ----------------3---------------------------------------------------------
D ---3^5---5p4p3h5-------------------2-2^3^2---3^5^3-----5---5^7^5---7^8^7--
A --------------------------------------------------------------------------
E -----------------5-3------------------------------------------------------


Solo
Eb Bb F Dm
E -------------------|-18-17---|------17---|------------------------
B ---18-20p19p18--18-|------20-|-18-20--18-|---18-20p19p18~---------
G --------------19---|---------|-----------|-19---------------------
D -------------------|---------|-----------|------------------------
A -------------------|---------|-----------|----------------17-17---
E -------------------|---------|-----------|------------------------
Eb Bb F~
E ---------------------------|---------------------------------------
B ---18^20~-?20^18~--17-18~--|---------------------------------------
G ---------------------------|---17-19p18p17--------17-19------------
D ---------------------------|--------------19p18h19-----------------
A ---------------------------|---------------------------------------
E ---------------------------|---------------------------------------

E ---------------18--------------------------------------------------
B ------------------20-----------------------------------------------
G ---19^17--17-19-------19-19p18p17-----------17---------------------
D --------19-------------------------19-17-19----19p17---------------
A -----------------------------------------------------20--17--------
E -------------------------------------------------------------------


E -------------------------------------------------------------------
B ---------------------------1818------------------------------------
G ----------------17----17h19------19b20r19-17-17~-------------------
D ----------17-19----19-----------------------------17b18r17-15-15~~-
A -17h19h20----------------------------------------------------------
E -------------------------------------------------------------------



(this is where the 2nd half of the solo goes...)


Eb Bb
Thought I heard a jug band playin' (ooo-oooooh-oooowooooh)
F Dm
"If you don't who else will?" (ooo-oooooh-oooowooooh)
Eb Bb F
From over on the far side of the hill
Eb Bb
All I know is the sun don't shine (ooo-oooooh-oooowooooh)
F Dm
And the rain refuse to fall (ooo-oooooh-oooowooooh)
F C Bb
And you don't seem to hear me when I call


Eb Bb
The wind inside, and the wind outside
F Dm
Tangled in the window blind
Eb Bb F
Tell me why you treat me so unkind
Eb Bb
Down where the sun don't shine
F Dm
Lonely and I call your name
F C Bb
No place left to go - ain't that a shame


Gm C
New York to San Francisco
A7 Dm C
So many roads I know
Bb F Eb(maj7)
All I want is one to take me home
Cm A7
From the high road to the low
Dm Gm7
So many roads I know
Bb F Eb(maj7) Dsus4 D
So many roads - so many roads


Trill

C F G
E---0------------1-------3---
B------1------------1----3---
G---------0---2--------------
D----------------------------
A----------------------------
E----------------------------


Eb Bb
From the land of the midnight sun (ooo-oooooh-oooowooooh)
F Dm
Where the ice blue roses grow (ooo-oooooh-oooowooooh)
Eb Bb F
Along the roads of gold and silver snow
Eb Bb
Howlin' wide or moanin' low (ooo-oooooh-oooowooooh)
F Dm
So many roads I know (ooo-oooooh-oooowooooh)

F C Bb
So many roads to ease my soul
So Many roads to ease my soul .... (ooo-oooooh-oooowooooh)
So Many roads to ease my soul .... (ooo-oooooh-oooowooooh)
Last edited by shakedown_04092 on Sun May 07, 2006 8:36 am, edited 1 time in total.

.

 #5373  by LazyLightnin
 Sat May 06, 2006 6:38 pm
thank you sooooooooo much for this tab!
 #5393  by shakedown_04092
 Mon May 08, 2006 12:33 pm
LazyLightnin wrote:thank you sooooooooo much for this tab!
No prob. I know someone had asked for the 9.18.04 solo, but I did this one because 1.) it's my favorite version, and 2.) the version I have from 9.18.04 is pretty torn up and the quality is shot.

If anyone wants to take a stab at the 2nd half of this 10.1.94 solo, I'd be much obliged.

Thanks.

 #5404  by caspersvapors
 Mon May 08, 2006 5:24 pm
yeah that was me who asked for the 9/18 one, either way great stuff man thanks a lot!!!