#36328  by bucketorain
 Fri Feb 01, 2008 5:42 pm
does anyone know the little riff Jerry does between verses?

I came up with this:

(/) Slide Up () Slide Down (h) Hammer On (p) Pull Off (b) Bend (r) Release (v) Vibrato

E|-------------------------
B|-------------------------
G|--9p7\6------------------
D|-----------9p7\6---------
A|------------------7v-----
E|-------------------------

 #36387  by Billbbill
 Sat Feb 02, 2008 8:26 am
keeping in line with your positioning this be how i hear it;

E|-------------------------
B|-------------------------
G|--9-7-6---7-6--------------
D|--------9-----9-7-6-------
A|-----------------------
E|-------------------------

 #36390  by bucketorain
 Sat Feb 02, 2008 8:32 am
thanks Bill very much!! it sounds great...btw, is that in the correct spot? i would imagine you can play it in a few other spots.