#21382  by Tango_grass
 Sun Jul 29, 2007 3:49 pm
I am getting ready to play "Help" with a band soon and was wondering if anybody has those chords down yet for the "Poised for flight" section?

Its been a while since anybody discussed them. Any new Ideas? Thanks

 #21384  by Tango_grass
 Sun Jul 29, 2007 4:09 pm
Awesome, man, Thanks....I am slowly gtting a simplified version of my own....

 #35896  by strumminsix
 Sun Jan 27, 2008 8:37 pm
Tango_grass wrote:Awesome, man, Thanks....I am slowly gtting a simplified version of my own....
Not to sound harsh but why bother playing the song if you need to simplify it? The part you are mentioning is a breeze compared to Slipknot!

 #35900  by austin
 Sun Jan 27, 2008 9:03 pm
what i play during it is:


(/) Slide Up () Slide Down (h) Hammer On (p) Pull Off (b) Bend (r) Release (v) Vibrato

E|---------------------------------------------------
B|-6-------4----3-----------6-----4------3-----------
G|-----------------------5------------------------6--
D|-6-------5----3-------6---6-----5------3-------5---
A|---------------------8-----------------------------
E|---------------------------------------------------
poised for flight, wings spread bright,


E|-----------------------3--3--1---------33--33--33~-
B|--4-------3-----1------1--1--1----3----11--11--11~-
G|-----------------------1--1--1----1----11--11--11~-
D|--5-------3-----1------1--1--1----1----11--11--11~-
A|---------------------------------------------------
E|---------------------------------------------------
spring from night into the sun..

at least for the most part, hopefully that works for you


http://www.guitartabcreator.com

 #35901  by Billbbill
 Sun Jan 27, 2008 9:15 pm
I've been watching some vids of jg on this and this is what I've seen



(/) Slide Up () Slide Down (h) Hammer On (p) Pull Off (b) Bend (r) Release (v) Vibrato

E|-------------------------------------------------------
B|-------1--6--4--3--------3--6--4--3--------3--4--3--1--
G|----1-----5--5--5-----5-----5--5--5-----5-----5--5--1--
D|-3--------6--6--6--6--------6--6--6--6--------6--6--3--
A|-------------------------------------------------------
E|-------------------------------------------------------
http://www.guitartabcreator.com

(/) Slide Up () Slide Down (h) Hammer On (p) Pull Off (b) Bend (r) Release (v) Vibrato

E|--6--6--6--4--3--3--3--3--3--3--
B|--8--8--8--6--4--4--4--4--4--4--
G|--7--7--7--5--5--5--5--5--5--5--
D|--8--8--8--6--5--6--6--6--6--6--
A|--------------------------------
E|--------------------------------
http://www.guitartabcreator.com

Same melody line that PeteB so nicely posted, just leans a bit more on chord shapes to convey the melody. And after the first three note deal that picks out the Fm the next 2 seem to not be that at all. I always thought they were all the same Fm thing but after careful viewing I think jg did what I've posted above...fwiw...

 #35973  by bucketorain
 Mon Jan 28, 2008 8:56 pm
i need advise on this part...i like to play it with single notes...this is what i have so far

(/) Slide Up () Slide Down (h) Hammer On (p) Pull Off (b) Bend (r) Release (v) Vibrato

E|----------------------------------------------------
B|-------------------------------8--8--8--6-----------
G|--10--8--7--10--8--7--8--7--5--------------8--8-----
D|----------------------------------------------------
A|----------------------------------------------------
E|----------------------------------------------------

This is the part i'm having trouble with, its the part that finishes before they go back into the verse parts...

E|----------------------
B|------------8--11-----
G|--5--8--10------------
D|----------------------
A|----------------------
E|----------------------

I feel its missing a few fill notes but i can't place them....

 #35986  by Billbbill
 Tue Jan 29, 2008 4:35 am
bucketorain wrote:
This is the part i'm having trouble with, its the part that finishes before they go back into the verse parts...

E|----------------------
B|------------8--11-----
G|--5--8--10------------
D|----------------------
A|----------------------
E|----------------------

I feel its missing a few fill notes but i can't place them....
During the the verses there's really not a whole lot going on there. They just strum out the chord. If you want a sample lick say like what is played there during the lead here's a little deal-

B----------8-----------8
G----8--10---10--8--10
D-10------------

You can bend the 10 to the 12 on the G instead of hitting the 8 on the B.

You could also check out what PeteB does in his vid.

 #36000  by bucketorain
 Tue Jan 29, 2008 8:47 am
thanks Bill! thought you would be all over this one. thanks again!