#32651  by b weird
 Wed Dec 12, 2007 12:21 pm
Does anyone have any chords and the intro/riffs/solos? Thanks.

 #32657  by shakedown_04092
 Wed Dec 12, 2007 12:41 pm
Code: Select all
Sittin' In Limbo
(Cliff/Bright)


C
Sitting here in limbo, but I know it won't be long.
F                                            C
Sitting here in limbo, like a bird without a song.
             G
Well they're putting up resistance,
      F            G                  C
But I know that my faith will lead me on.

Sitting here in limbo, waiting for the dice to roll.
Sitting here in limbo, got some time to search my soul.
Well they're putting up resistance
But I know that my faith will lead me on.

Bridge:
        F                    C
I don't know where life will lead me,
      F               C
But I know where I've been.
        F                  C
I can't say what life will show me,
      F              C
But I know what I've seen.
         Em               Am
Tried my hand at love and friendship,
        Em                 Am
But all that is passed and gone.
D                          G
 This little boy is moving on.

Sitting here in limbo waiting for the tide to flow.
Sitting here in limbo knowing that I have to go.
Well they're putting up resistance,
But I know that my faith will lead me on.


Solo over 2 verses

Bridge

First 2 verses again


Riff after the C’s (during verse only)
E -----------------------------------------
B ---3^5--3--1----1---1h3--3^5--5--3--1----
G --------------2---2----------------------
D -----------------------------------------
A -----------------------------------------
E -----------------------------------------

Walk-up to F
E ---------1---
B ---------2---
G ---------3---
D -----0-2-3---
A ---3---------
E -------------

Walk-down to G
E ---------1---
B ---------0---
G ---------0---
D ---------0---
A ---3-2-0-2---
E ---------3---
There ya go

Oh yeah, here's a different ending I like to do, just adding an A note in there:
Code: Select all
Ending
E --------------------------------------------
B ---3^5--3--1----1---1h3--3^5----5---3---1---
G --------------2---2-----------2---2---2-----
D --------------------------------------------
A --------------------------------------------
E --------------------------------------------
Last edited by shakedown_04092 on Wed Dec 12, 2007 1:00 pm, edited 1 time in total.

 #32658  by astroman99
 Wed Dec 12, 2007 12:54 pm
The chords look good, except in the chorus the E is a Em.
great song!
-h

 #32660  by shakedown_04092
 Wed Dec 12, 2007 12:59 pm
Yep, you're right, my bad. Funny, I actually play an Em when playing the song, so don't know how that E slipped in there. :-?

 #32664  by astroman99
 Wed Dec 12, 2007 1:13 pm
No problem, just don't try sliipin' any Augmented chords... :lol:

 #32670  by b weird
 Wed Dec 12, 2007 2:05 pm
Thanks! :lol:

 #32686  by IamDocWatson
 Wed Dec 12, 2007 5:06 pm
i like to doouble the 3/5 slide up...doing it on the D string at the same time...jerry does this stuff alot on his acoustic stuff.....
Code: Select all
E -------------
B ---3^5--3--1-
G -------------
D ---3^5--3--2-
A -------------
E -------------

 #32687  by IamDocWatson
 Wed Dec 12, 2007 5:07 pm
apply that theory to different chords as you please...its just a little harmonic movement between 2 different chord voicings

 #32701  by ronster
 Wed Dec 12, 2007 8:58 pm
This is how I see Jerry doing it

E|----------------------------------
B|-------5b-------3--1--------1-----
G|----------5-----------0-----------
D|--3s5--------5--3--------2--------
A|-------------------3-----------3---
E|----------------------------------

Bar the 5th fret with your ring finger and add some vibrato(bend) to all those 5th fret notes. Let the second 5 note ring out. The last 2 of the 5th fret notes are 1/8 notes and played softly while still wiggling the bar chord. I expect Santa to bring a web cam and this is first on my list along with a lead I have worked out.

Lead starts out like this


E|--15r13r12------12------------------------------------12------12-------------------------
B|------------15------15--13------13--15---------13h15------15------15--13-----13----------
G|----------------------------14----------12h14-----------------------------14-----14------
D|-----------------------------------------------------------------------------------------
A|-----------------------------------------------------------------------------------------
E|-----------------------------------------------------------------------------------------