#22986  by GratefulPat
 Sat Aug 25, 2007 12:34 pm
no specific version. play 2 to 4 times. this does sound good, so i dont want to hear awful from any1. i play it as jerrys part, but its a mix of him and bob
E|---------------------2------------------------------------
B|--1-2--2-------------3--2--1-2-------------------------2--
G|--1-2--2-------------2--2--1-2-------------------------2--
D|--1/2--2--2-------2-----2--1/2--2-------2--4--2--------2--
A|-------------3h4-------------------3h4-----------4--2-----
E|----------------------------------------------------------

 #22989  by strumminsix
 Sat Aug 25, 2007 12:44 pm
*awful* :twisted:

Joking aside I disagree with your transcriptions:
Firstly, I don't hear a D, I hear an Asus4.
Secondly, the merging of the parts seems lacking.

Basic Bobby:
E|-----------------|--------------------
B|-1/2--2----3-2---|--1/2--2------------
G|-1/2--2---2---2--|--1/2--2------------
D|-1/2--2--2-------|--1/2--2--4-2-0-----
A|--------4--------|---------------4-0--
E|-----------------|--------------------

 #22995  by ebick
 Sat Aug 25, 2007 1:10 pm
now that is how you do it here.

Welcome to the community.

 #22998  by GratefulPat
 Sat Aug 25, 2007 1:35 pm
play it once strummin. im 99.9% sure its a d. every i time i see dso play it robby hits an open d.with the right timing it sound pretty accurate..

 #23005  by strumminsix
 Sat Aug 25, 2007 2:09 pm
GratefulPat wrote:play it once strummin. im 99.9% sure its a d. every i time i see dso play it robby hits an open d.with the right timing it sound pretty accurate..
Really?! He doesn't play the Bobby riff? Surprising.
But if anyone would know it would be Rob.
That dude has MAJOR GD concert and Bobby experience.

 #23006  by GratefulPat
 Sat Aug 25, 2007 2:27 pm
that whole fucking band does, especially robby and jk. they are the shit. i mean ive seen sugar mag like 30 times from them and i always am watching what there playin since i play gd all the time too. so ya.. idk but thats how he plays it

 #23011  by XxRouninxX
 Sat Aug 25, 2007 3:09 pm
heres how i like to play it, its kind of a hybrid, i play part D part A gives it that glossy semi-dissonant sound

E|--------------------------------------------------
B|-1/2--1/2---1/2-----3-2--1/2----------------------
G|-1/2--1/2---1/2---2-2-2--1/2----------------------
D|-1/2--1/2---1/2-----2-2--1/2------2h4p2-----------
A|-0----0-----0------------0----2h4-------4-2-0-----
E|--------------------------------------------------