#1247  by captain_trip_420
 Thu Nov 18, 2004 9:05 pm
okay, here is the basic parts to bobs fun dancin' parts for esp late 70s dancin's. You can hear it and he changes the strums around so have fun with it.

------------------------------------
-12~---12--12--12---13-13-13-13-----
-12~---12--12--12---12-12-12-12-----
-11~---11--11--11---11-11-11-11-----
------------------------------------
------------------------------------
 #1632  by Dozin
 Mon May 02, 2005 3:52 am
This is how I play it. You can do all kinds of variations of strumming.


-8~9-9-9---9--9--9-9--10-10-10------
-7~8-8-8---8--8--8-8--10-10-10------
-8~9-9-9---9--9--9-9--11-11-11------
------------------------------------
------------------------------------
------------------------------------

 #1633  by Billbbill
 Mon May 02, 2005 4:38 pm
You guys made me think of one of the Bobby riffs I like to play. It's kind of a combo of the two of yours. At least I'm pretty sure it's Bobby.

---A--------A7-----------D
e-----------15--15-15-------------
b--14-14----14--14-14----14-14---15-15-15-15-15-15
g--14-14----14--14-14----14-14---14-14-14-14-14-14
d--14-14-----------------14-14---12-12-12-12-12-12