#52150  by Billbbill
 Wed Oct 29, 2008 5:18 pm
So this is an oldie that I just noticed wasn't in this forum. I know it's in here somewhere but I sure don't know where. If you've seen it - never mind. ;)

 #52260  by Billbbill
 Sun Nov 02, 2008 8:57 am
So I added intro and lead (the signature lead riff) tab annotations to this. It lines up fine on youtube, not as well here on this smaller view - for some reason.
 #52264  by Pete B.
 Sun Nov 02, 2008 11:00 am
Bill,
By any chance can you post just the tab here?
Thx.

Hey, anbody know the story of NYE '81 when Jerry tied the knot to MG?
Did he play CR&S before or after the Wedding?

I like to play this song at weddings, but on one occassion have had other Deadhead bandmembers disagree.
What's your take on it?
~pb
 #52265  by Billbbill
 Sun Nov 02, 2008 11:28 am
Pete B. wrote:Bill,
By any chance can you post just the tab here?
Thx.

Hey, anbody know the story of NYE '81 when Jerry tied the knot to MG?
Did he play CR&S before or after the Wedding?

I like to play this song at weddings, but on one occassion have had other Deadhead bandmembers disagree.
What's your take on it?
~pb
I'd used the tab creator and copied and pasted into the annotations feature on yt. With some minor tweaking it worked pretty well. I'll try to reverse the process.

I'd only think this tune would make a wedding appearance if the bride had a real good sense of humor - considering the ball & chain nature of the lyrics and all. Or if tongue we're firmly planted in cheek, maybe.
 #52268  by Billbbill
 Sun Nov 02, 2008 12:43 pm
Intro
--E-------D------------------E----------------------------D-------------------E
A-----------5--5---5--5--------7-5--7h5---5/7-5------------5--5---5--5---
E-0-0-3-4-5--5---5--5---5-3b-0-----7-------------7-5p4-0--5--5---5--5--5-5-3b-0


Lead break - jg's part

----E---------------D---------------------------------------------------E
B|------------------10------10------10-----10h12----10h12----------------
G|----------------9----9h11----9h11----9h11-------11------11-------9h11p9-
D|-----9h11p9-11----------------------------------------------9h11--------
A|-/11-------------------------------------------------------------------


---E--------------D---------------------------E
G|------9h11p9----7-----7-----7h9p7---7h9p7---9-
D|-9h11--------11---7h9---7h9-------9-------9---

----E
E|---------------------------------12-
B|----------9h10p9---9-10h12p10-12----
G|-9/11p9-11-------11------------------

---D--------------------------------------------------------E
E|-10-------10-------10------10h12p10----10h12p10-------7h9-7-
B|----10h12----10h12----10h12---------12----------12-7h9-------

--E------------D-------------------------E
E|-----7h9p7---5-----5----5h7p5---5---5--7
B|-7h9-------9---5h7---5h7------7---7----


Well lets see how this looks
 #52325  by Billbbill
 Tue Nov 04, 2008 3:34 am
fyi - if any of you are getting a view of this tab where it is too long and goes to the next line (aka screwed up), go to the page from here

http://community.rukind.org/index.php

without the left side column. Or open in a new tab or window. That works with IE 7