#1629  by Billbbill
 Sat Apr 30, 2005 10:07 am
This is off no particular version, purely "the authors interpretation". I flat, ring and middle finger pick this. All notes are pretty much "stunted".

C
E|-----------------
B|--------------1--
G|--0--------------
D|--------2-----2--
A|--3--3-----3-----
E|-----------------

C7
E|-----------------
B|--------------1--
G|--3--------------
D|--------2-----2--
A|--3--3-----3-----
E|-----------------

C6
E|-----------------
B|--------------1--
G|--2--------------
D|--------2-----2--
A|--3--3-----3-----
E|-----------------

C+
E|-----------------
B|--------------1--
G|--1--------------
D|--------2-----2--
A|--3--3-----3-----
E|-----------------


Obviously one could build many picking arrangements around this line. The main thing is the descending line, C, Bb, A, G#, to G/C.

Above is a simple one to work from.


Worth mentioning is a different take (than in the tab section) I have for the chords in the "Look around, round, round" part.


First off I play this in C, so the chords would be as follows:

Look around, round, round

-----C--------------Dm7-----Cmaj7----Dm7
e----0---------------------------------
b----1--------------3--------5-------3---
g----0--------------2--------4-------2---
d----2--------------3--------5-------3---
a----3--------------3--------3-------3---
e--------------------------------------
 #72833  by Billbbill
 Thu Jan 28, 2010 7:50 pm
Not sure about the chord label (Dm7) I gave to that second form - what the forms I have cited do is keep the C bass through-out - Move the Bb bass of your Bbmaj7 up 2 frets to C and you have my Dm7 form...or whatever the correct citation would be. :smile:

How about Csus4 6-9? :smile:
Bbmaj7 w/C bass
F6 w/C bass
 #72888  by ronster
 Sat Jan 30, 2010 8:21 am
Cmaj7 no question
Dm7, could be but I prefer the F6 w/ C bass you also mentioned. If you ask someone to play those two chord they will only end up in the position shown using the F6 w/ C bass plus the fact that you have the C and F as bass notes.
 #72986  by DiamondDave
 Mon Feb 01, 2010 8:30 pm
Ah, this is great Bill. This is a very difficult song for me to grasp. I've watched every video I could find and it seems for a few of them, he's just using a pick. Then.... on one verse his hand is way down at the 9th fret or so, and he's just picking away with two fingers. You should make a vid... :D
 #119933  by Tennessee Jedi
 Fri Oct 19, 2012 7:28 am
Billbbill wrote:This is off no particular version, purely "the authors interpretation". I flat, ring and middle finger pick this. All notes are pretty much "stunted".

C
E|-----------------
B|--------------1--
G|--0--------------
D|--------2-----2--
A|--3--3-----3-----
E|-----------------

C7
E|-----------------
B|--------------1--
G|--3--------------
D|--------2-----2--
A|--3--3-----3-----
E|-----------------

C6
E|-----------------
B|--------------1--
G|--2--------------
D|--------2-----2--
A|--3--3-----3-----
E|-----------------

C+
E|-----------------
B|--------------1--
G|--1--------------
D|--------2-----2--
A|--3--3-----3-----
E|-----------------


Obviously one could build many picking arrangements around this line. The main thing is the descending line, C, Bb, A, G#, to G/C.

Above is a simple one to work from.


Worth mentioning is a different take (than in the tab section) I have for the chords in the "Look around, round, round" part.


First off I play this in C, so the chords would be as follows:

Look around, round, round

-----C--------------Dm7-----Cmaj7----Dm7
e----0---------------------------------
b----1--------------3--------5-------3---
g----0--------------2--------4-------2---
d----2--------------3--------5-------3---
a----3--------------3--------3-------3---
e--------------------------------------
Dear 2005 Bill ,
In 2012 this lesson will really help me
:D
Yeah man this lesson works really well
Cant stop playing this one now
Thanks !
 #119946  by Billbbill
 Fri Oct 19, 2012 10:20 am
Just a matter of tiiiiiiiiiiimmmmmmmmmeeeeeeee before you got around to it Tom! Glad it's helped :)

Here are another 2 positions up the neck
Code: Select all
C
E|-----------------
B|--------------5--
G|--5-----5-----5--
D|--5--5-----5-----
A|-----------------
E|------------------

C7
E|-----------------
B|--------------5--
G|--5-----5-----5--
D|--8--8-----8-----
A|-----------------
E|-----------------

C6
E|-----------------
B|--------------5--
G|--5-----5-----5--
D|--7--7-----7-----
A|-----------------
E|-----------------

C+
E|-----------------
B|--------------5--
G|--5-----5-----5--
D|--6--6-----6-----
A|-----------------
E|-----------------

			
 #119948  by Billbbill
 Fri Oct 19, 2012 10:29 am
Code: Select all
C
E|-----------------8--
B|--8--------------8--
G|--9-------9---------
D|--10--10-----10-----
A|--------------------
E|--------------------

C7
E|-----------------8---
B|--11-------------11--
G|--9-------9----------
D|--10--10-----10------
A|---------------------
E|---------------------

C6
E|-----------------8---
B|--10-------------10--
G|--9-------9----------
D|--10--10-----10------
A|---------------------
E|---------------------

C+
E|-----------------8--
B|--9--------------9--
G|--9-------9---------
D|--10--10-----10-----
A|--------------------
E|--------------------