#7407  by winston
 Fri Jul 21, 2006 7:40 am
Following up to my topic:

Exemplary Jerry Solos Needed for Independent Study Project
http://community.rukind.org/viewtopic.php?t=1188

The project is proceeding and I have a first transcription: The Harder They Come, JGB, 8/29/1987, first stanza of first solo. My interest in the solo is that it is heavily pattern based - it contains several fragments of ordinary scale exercises, which makes it particularly useful to study.

If you would like a copy, send me a private message. I have it in PowerTab, PDF, and plain-text formats. The show itself is available from SugarMegs at:
http://tela.sugarmegs.org/_asxtela/jgb1987-08-29.asx

Here is an excerpt:
Code: Select all

 Am
   +H     Q   E  E    E  E  E  E  E  E  E  E
|------------------|-------------------------|
|-(13)-------------|-------------------------|
|------------------|-------12----12-12-13-14-|
|---------------12-|-13-14----14-------------|
|------------15----|-------------------------|
|------------------|-------------------------|


   E  E  E  E  E  E  E  E    E  E  E  E  E  E  E  E
|-------------------------|-------------12----12-13-|
|-12-------12-13----12-13-|-15-12-13-15----15-------|
|----13-14-------14-------|-------------------------|
|-------------------------|-------------------------|
|-------------------------|-------------------------|
|-------------------------|-------------------------| 

 #10359  by hlblyhipy
 Thu Nov 16, 2006 12:33 pm
Hey Winston I would like a copy in the powertab format if you would be so kind.Thanx Andrew