rukind.com

Grateful Dead Music Forum

A place to talk about the music of the Grateful Dead 

 #40324  by Billbbill
 Fri Mar 21, 2008 5:17 pm



Here's the intro in the vid - This is my take on the later jg intro.

e------------------------------------
b------------------1/2-2--1/2-1/2--
g-----2-------2---------------------
d--1/2-2-1p0-------1/2-2--1/2-1/2--
a-----------3---0-------0--------0-
e-----------------------------------


I'm actually partial to the way I see the late 70's intro.

e---------------------------------
b-----------------1/2-2--1/2-1/2--
g-----0-2--------------------------
d--1/2---1p0------1/2-2--1/2-1/2--
a-----------3--0-------0--------0-
e---------------------------------
Last edited by Billbbill on Sat Jun 14, 2008 5:48 am, edited 1 time in total.

 #40325  by warrenMFKNhaynes
 Fri Mar 21, 2008 7:27 pm
I've just started to play this song, i like to play the intro with the bar chord, but thats on electric

good job! :cool: :smile: :cool: :smile:

 #40327  by bodiddley
 Fri Mar 21, 2008 9:58 pm
I see I still have a lot of work to do. OK, I got the intro and a7 slide chords...now how how 'bout tabbin' the rest? God, I feel like such a hack.

 #40328  by st. stephen
 Sat Mar 22, 2008 3:24 am
I really liked it, 5 yt stars from me
keep em coming :cool:

 #40338  by ronster
 Sat Mar 22, 2008 7:52 am
Billx2
You just keep getting better. Sounding pretty comfy playing this stuff. Are those PJ's you are wearing? You aced the leads, kept right on beat the whole way. What modes are you playing the main and ending solo in? Let me know when you get a gig in Baltimore. I've taken a hiatus from the jerry stuff the last month to work on my Jorma stuff but will be absorbing all these fine vids you've been posting shortly. GO BLUE

 #40347  by Billbbill
 Sat Mar 22, 2008 10:50 am
ronster wrote:Are those PJ's you are wearing?
Yup. :-) That may be where the 'comfy' comes in. tehe - Though while I feel this one is much more in my vocal range it's not easy with all the pull ups and walk ups. Was a lttle rough.
ronster wrote:You aced the leads, kept right on beat the whole way.
I can not tell a lie. Finally broke down and used my metronome. Glad i did. Worked great.
ronster wrote:What modes are you playing the main and ending solo in?
Verse

A -- A Mixolydian* - (flat 3rd (C note) works as well)

D -- D Mixolydian - (flat 3rd (F note) works as well)

Em - E Dorian*

Bm - B Aeolian*

A -- A Mixolydian*

G -- G Lydian*

Fm - F Pyrygian*

Em - E Dorian*

D -- D Mixolydian

* All the same notes (A-B-C#-D-E-F#-G)

While I think these are the modes I'd say this is one of those where from the Em to Em less tends to be more. Ya know?


End lead

Depending on emphasis given I pretty much bounce around between:

D blues - using minor or major 3rd as I see fit
and
D Mixolydian

A bunch of chromo's here as well

ronster wrote:GO BLUE
YES!

 #44962  by Billbbill
 Sat Jun 14, 2008 5:47 am
tab for the verse lead in my vid

(/) Slide Up (\) Slide Down (h) Hammer On (p) Pull Off (b) Bend (r) Release (v) Vibrato

--A------------------------------------------------------D

E|---------12--14---------12--14-----------------------------
B|--13b14----------13b14------------12b13--12b13r12------10--
G|---------------------------------------------------11------
D|-----------------------------------------------------------
A|-----------------------------------------------------------
E|-----------------------------------------------------------

--D

E|---------------------------------------
B|------10--12--12b13r12------10h12--10--
G|--11--------------------11-------------
D|---------------------------------------
A|---------------------------------------
E|---------------------------------------

--D---------------A

E|--14p13p12------12--14--15--15--17--
B|------------14----------------------
G|------------------------------------
D|------------------------------------
A|------------------------------------
E|------------------------------------

--A--------------------------------------------D

E|--19--19b20--19--17-------17--17--19p17------17--17
B|---------------------20b-----------------19--------
G|---------------------------------------------------
D|---------------------------------------------------
A|---------------------------------------------------
E|---------------------------------------------------

--D

E|--------------------------------------
B|--19p18p17----------------------------
G|------------19------19p17------17h19--
D|---------------------------19---------
A|--------------------------------------
E|--------------------------------------

--D----------------------------Em

E|---------------------------------17--17--17p16p15--
B|------13--15p13--15p13----16/17--------------------
G|--14-----------------------------------------------
D|---------------------------------------------------
A|---------------------------------------------------
E|---------------------------------------------------

--Em----------Bm

E|--14h15p14--15p14---------------------
B|-------------------15-------------15--
G|-----------------------16p14--16------
D|--------------------------------------
A|--------------------------------------
E|--------------------------------------

--Bm-----------A------------G------------F#m

E|-------------------------------------------
B|-------------------------------------------
G|--16p14------14----12h14--12----11h12--11--
D|---------16--------------------------------
A|-------------------------------------------
E|-------------------------------------------

--F#m----------Em

E|-------------------------------------------
B|-----------------------------8--7----------
G|--11--11p10--9--7h9--9p7--7--------9--9p7--
D|-------------------------------------------
A|-------------------------------------------
E|-------------------------------------------

--Em--------------------D

E|---------------------------------------------------
B|-----------------------7---------------------------
G|--6h7p6--7p6-----7-----7------------------------7--
D|--------------9--------7-----7-----7--9p8p7--------
A|--------------------5-----9-----9------------9-----
E|---------------------------------------------------

--D----------------------A7

E|---------------------------
B|---------------------------
G|-------2-------------2-----
D|--1/2-----2--1p0-----------
A|------------------3-----0--
E|---------------------------



Whew! That was no joke. I guess I don't know what the hell I'm doin...
:-)
 #129681  by mlong1991
 Sat Jun 29, 2013 8:42 am
hello,

can you please post the tablature of the little riff you do between dminor and aminor on the verses? I know its simple but I am a beginner ad it would really help round out my attempts at this song. thank you!!!