rukind.com

Grateful Dead Music Forum

A place to talk about the music of the Grateful Dead 

 #9797  by confusions_prince
 Mon Oct 23, 2006 12:46 pm
Hm... Most of the tabs from _Blues for Allah_ seem to be missing. I see there's a request for "Sage and Spirit" but no action on it.

Anyhow, I stumbled on what sounds like part of "Blues for Allah" and on listening to the song again, it doesn't sound too complicated. Maybe someone with a better ear and more experience can fill in the rest?

E|-----------------------
B|-----------------------
G|-----------------------
D|-----------------------
A|-----0--1--2--1--0-----
E|--0--------------------

(repeat)

Thanks.

 #9826  by tigerstrat
 Tue Oct 24, 2006 11:25 am
were you trying to tab this part of it?
E|--------------------
B|--------------------
G|-----2--4-----1-----
D|--2--------4--------
A|--------------------
E|--------------------
2x, followed by
E|-----------------------------------------
B|-----------3--2--------------------------
G|-----2--4--------3--4-----1--2-----------
D|--2--------------------4--------2--1-----
A|-----------------------------------------
E|-----------------------------------------

 #9843  by tigerstrat
 Tue Oct 24, 2006 9:49 pm
ah I was thinking maybe I should have done it a half-step higher.

 #9855  by phreaker
 Wed Oct 25, 2006 6:29 pm
pff...way to go TS.

just joshin', bud.

 #9877  by confusions_prince
 Fri Oct 27, 2006 6:57 am
Tiger, not quite the part I was trying for (hell, I listened to the song and COULDN'T FIND what I was trying for) but still lots better than what I was trying.

Thanks for the link!

While we're on the subject of BFA, there's a weirdness at the very end of the album. Listen carefully for "that's weird."