rukind.com

Grateful Dead Music Forum

A place to talk about the music of the Grateful Dead 

 #9030  by amyjared
 Sun Sep 17, 2006 9:58 pm
Ed,
Awesome as usual, but can you tab out the very last part of the intro, that starts on the G string on the 9th fret with that slide up to the 11th fret? You play it well, but I'd love to follow it along the tab. Please?

 #9031  by ebick
 Mon Sep 18, 2006 7:00 am
I think what you are referring to is tabbed out in the song but labeled as the "Main Theme"

Bob
E---0-------2-----------0-----------------------------------
B---0-------3-----------2-----------------------------------
G---1-------2-----------2-----------------------------------
D---2-------0-----------2-----------------------------------
A---2-------------------0-----------------------------------
E---0-------------------------------------------------------

Jerry
E-----------------------------------------------------------
B-----------------------------------------------------------
G---9--9--9^11/9--7--7--------7-------7--9^11/9--7---7------
D------------------------7h9-----7h9---------------9--------
A-----------------------------------------------------------
E-----------------------------------------------------------

E---0--------2----------------0------------------------0----
B---0--------3----------------2------------------------0----
G---1--------2----------------2------------------------1----
D---2--------0----------------2------------------------2----
A---2-------------------------0------------------------2----
E---0--------------------------------------------------0----

E-----------------------------------------------------------
B-----------------------------------------------------------
G---9--9--9^11/9--7--9--7-----9--7--9--7--------------------
D-----------------------------------------9--7--9p7-----7---
A----------------------------------------------------10---10
E-----------------------------------------------------------


It won't be right away, but I have Help/Slip as next on my list. I know you've asked for that.

 #9035  by amyjared
 Mon Sep 18, 2006 8:17 am
I should have looked at the tab! I'm sorry. I was watching the video and the tab wasn't next to it, so I thought it wasn't available. My mistake. Thanks for the cut and paste, and thanks for Help/Slip being on the list!

 #9041  by ebick
 Mon Sep 18, 2006 12:21 pm
The confusion is not all yours.....I had set a precedent of breaking down the vids to match the tab....I broke that.

 #9043  by CaptainTrips
 Mon Sep 18, 2006 2:45 pm
OH man a Help/Slip video would really make my day!! gotta love them appreggios!

 #9068  by phpbb
 Tue Sep 19, 2006 6:38 pm
The Main theme has been added to the Intro Video...