rukind.com

Grateful Dead Music Forum

A place to talk about the music of the Grateful Dead 

 #66776  by enardi
 Wed Sep 30, 2009 10:20 pm
Heres what I cam up with for playing the intro further down the fretboard works well, not quite as good as in the first position but still fun to mess with, infact the whole song can be played down there if you use the bar variations of the open chords.

E|-----------------------------------------
B|-------------------7--------7-8-7--------
G|----------------------7------------56-5---6--
D|-------------------------9--7-9-7-------6-
A|-----------------9---------9---------------
E|--1/4--5--6--7---------------------------

on the second time through to kind of resolve the lick play this part after the simulaneously picked notes
E|---------------------
B|---------------------
G|--5h6--5-----5h6-----
D|-----------6--------6--
A|---------------------
E|---------------------
 #66796  by GratefulPat
 Thu Oct 01, 2009 8:23 am
ehhh sounds off to me