rukind.com

Grateful Dead Music Forum

A place to talk about the music of the Grateful Dead 

 #64555  by rowjimmy11
 Sat Aug 15, 2009 3:40 pm
How do you play that walk down into the ending of the song????
Give me your ways please!!!!!!
Thanks.
 #64561  by ronster
 Sat Aug 15, 2009 9:40 pm
Jdarks has it tabbed as
|-----------------------------|
|-----5-----4-----3-----------|
|-----------------------2p1p0-|
|-4/5---5\4---4\3---1h2-------|
|-----------------------------|
|-----------------------------|

I would think it should end more like this

|-----------------------------|
|-----5-----4-----3-----------|
|------------------------------|
|-4/5---5\4---4\3---1h2p1p0-------|
|---------------------------3--|
|-----------------------------|
 #64578  by GratefulPat
 Sun Aug 16, 2009 8:37 pm
i just play the c barre on the 3rd, so like open a barre form of c, then b then b flat then stum c... so starting on the barred c, b string, g string, d string, then repeat to b flat then open c... that sounds real accurate via 72ish stuff.. ill tab it since this sounds confusing even to me
 #64579  by GratefulPat
 Sun Aug 16, 2009 8:40 pm
E|-----------------------------
B|--5--------4--------3--------
G|-----5--------4--------3-----
D|--------5--------4--------3--
A|-----------------------------
E|-----------------------------

then hit open c.. i also slide once i hit the d string down to the next fret so it sounds that note but you dont pick it