rukind.com

Grateful Dead Music Forum

A place to talk about the music of the Grateful Dead 

 #62377  by Tennessee Jedi
 Mon Jun 15, 2009 7:51 am
Anyone have the intro tabbed out like on the album its from ( I forget the name of the Garcia record right now :D )?
Found some tab on the net but it sounds like the wrong position/notes.
The album version has a almost sweep picking sound going for the 1st few notes ..... driving me crazy ....
Thanks !
:D
 #62378  by Highballin'
 Mon Jun 15, 2009 8:00 am
The album is "Reflections". :peas:
 #62379  by NashvilleMike
 Mon Jun 15, 2009 8:10 am
This is the first Tab I have ever made, but I think it is right. At least this is how I play it.

E|------------------------------------------------------
B|------------------------------------------------------
G|--14--------------------------------------------------
D|------14----------------------------------13------14--
A|----------14----------------------------------12------
E|--------------14--12--12--10--10--12--10--------------

Then it is a quick run leading to the step up to the A.
 #62380  by Tennessee Jedi
 Mon Jun 15, 2009 8:14 am
NashvilleMike wrote:This is the first Tab I have ever made, but I think it is right. At least this is how I play it.

E|------------------------------------------------------
B|------------------------------------------------------
G|--14--------------------------------------------------
D|------14----------------------------------13------14--
A|----------14----------------------------------12------
E|--------------14--12--12--10--10--12--10--------------

Then it is a quick run leading to the step up to the A.
Thanks Mike !
Looks alot different then other stuff i found/and or dreamed up !
Will give it try tonight.
Highballin' wrote:The album is "Reflections". :peas:
me brain dead thank you
:D
 #62381  by Highballin'
 Mon Jun 15, 2009 8:18 am
Me brain dead too...you welcome. 8)
 #62389  by Billbbill
 Mon Jun 15, 2009 10:19 am
Me thinks the tab may be going the wrong way - no guitar in hand but I think those 14's are an ascending riff, pitchwise, not descending.
 #62391  by strumminsix
 Mon Jun 15, 2009 10:49 am
For reference Jerry played IMHBTR a bit more uptempo around 78 I think it is with a different intro...

Looking for a show date now...
 #62394  by NashvilleMike
 Mon Jun 15, 2009 11:17 am
Billbbill wrote:Me thinks the tab may be going the wrong way - no guitar in hand but I think those 14's are an ascending riff, pitchwise, not descending
D'OH !! He's right, it is backwards. Like I said first time tabbing. Here it is- not upside down and looking in a mirror.

E|--------------14--12--12--10--10--12--10--------------
B|----------14----------------------------------12------
G|------14----------------------------------13------14--
D|--14--------------------------------------------------
A|------------------------------------------------------
E|------------------------------------------------------
 #62397  by Tennessee Jedi
 Mon Jun 15, 2009 11:20 am
NashvilleMike wrote:
D'OH !! He's right, it is backwards. Like I said first time tabbing. Here it is- not upside down and looking in a mirror.

E|--------------14--12--12--10--10--12--10--------------
B|----------14----------------------------------12------
G|------14----------------------------------13------14--
D|--14--------------------------------------------------
A|------------------------------------------------------
E|------------------------------------------------------
Stoner me could have made it work ......
:D :D :lol: :lol: :D :D :D
 #62410  by Billbbill
 Mon Jun 15, 2009 4:57 pm
So TJ, w/o listening to a particular version this is how I kinda play it - been a long time since I've played this one too.

(/) Slide Up (\) Slide Down (h) Hammer On (p) Pull Off (b) Bend (r) Release (v) Vibrato

E|------------------14--13--12----14------12--------------------------
B|----------14--17--------------------15------15--14--12------12------
G|------14------------------------------------------------13------14--
D|--14--------------------------------------------------------------
A|------------------------------------------------------------------
E|------------------------------------------------------------------

E|---------------------------------------------------
B|---------------------------------------------------
G|--9--11------9-------------------------------------
D|---------11-----9------9---------------------------
A|-------------------11-----12--------------------0--
E|------------------------------0--0--2--0--4--0-----


http://www.guitartabcreator.com
 #62601  by GratefulPat
 Fri Jun 19, 2009 6:46 pm
E|----------------------------------------------------------------
B|--------------14--17/19--17--17--19--15--17--15--14-------------
G|----------14----------------------------------------- 16--14-----
D|------14--------------------------------------------------------
A|--16------------------------------------------------------------
E|----------------------------------------------------------------


E|-------------------------------------
B|-------------------------------------
G|-------------------------------------
D|--2/4--2-----------------------------
A|----------5--4--2--------------------
E|-------------------5--0--0--2--4--5--
 #62602  by GratefulPat
 Fri Jun 19, 2009 6:47 pm
thats pretty spot on i think... you can play the upper portion on the lower equivalent frets, and also the lower portion on the higher equivalent ones... this is from 78 version