rukind.com

Grateful Dead Music Forum

A place to talk about the music of the Grateful Dead 

 #53587  by Billbbill
 Wed Dec 10, 2008 7:20 pm
By request

http://ia360612.us.archive.org/0/items/ ... 04_vbr.mp3

Here's the version I worked off of

----------------Bb----------------F-------------C
E|----------------------------------------------------------8--
B|--------------11--11------------10--10------------------8-----
G|----------------------------------------8h9--------8h9--------
D|--10--11--12----------8--9--10---------------10---------------
A|------------------------------------------------------------
E|------------------------------------------------------------

----------------Bb----------------F--------------C
E|-------------------------------------------------------12----10--8
B|--------------11--11------------10--10-----------------------
G|----------------------------------------8h9------10/12----10-----9
D|--10--11--12----------8--9--10---------------10---------------
A|------------------------------------------------------------
E|------------------------------------------------------------


-----------------Bb---------------F------------C
E|-----------------------------------------------------8-------------12
B|--------------11--11------------10--10-----------------------
G|---------------------------------------8h9------8h9-----10--11--12-----
D|--10--11--12----------8--9--10--------------10---------------
A|------------------------------------------------------------
E|------------------------------------------------------------

----------------Bb----------------F-------------C-----------------------------G
E|---------------------------------------------------------------
B|--------------11--11------------10--10----(8)------------------
G|--------------------------------------8h9---------9------10p9------9h10-
D|--10--11--12----------8--9--10----------------10-----10--------10--------10/12
A|------------------------------------------------------------
E|------------------------------------------------------------


-----G----------------------------------------------------C
E|----------------------------------------------------------
B|----------------------------------------------------------
G|--12-------------12---------------------------------------
D|------12--10h12------12p10--10--9-------------------------
A|-------------------------------------------0-----2--2--3--
E|-------------------------------------3--3-----3-----------
 #53593  by b weird
 Wed Dec 10, 2008 10:01 pm
Here's my version taken from the Garcia/Hunter songbook from the album "American Beauty".
Code: Select all
                                                   Repeat 3 times
E|-------||---6-----6---------5-----5--------------------------------||--
B|-------||.----------------------------------5-----5--3--1---------.||--
G|--5/7--||------7-------3/5-----5-----------------------------5/7---||--
D|-------||------------------------------3/5-----5-----3--2----------||--
A|-------||.--------------------------------------------------------.||--
E|-------||----------------------------------------------------------||--

   Fourth time
E|-------------------------------------------------------------------------------------------
B|--5-----5-----5-----5-----5-----5-----8------12------12--12-------8--8---------------------
G|-------------------------------------------------------------------------------------------
D|-----5-----5-----5-----5-----5-----5--9--12------12--12--12----9-----9---------------------
A|--------------------------------------------------------------------------------0-0-2------
E|---------------------------------------------------------------------------3-3-----------3-

 #55698  by Viceroy
 Thu Jan 29, 2009 9:45 am
Thank Again billBBill ! Sounds awesome and again very helpful with the vid w/tabs. seems like your game has really hit another level lately. you are da man!