rukind.com

Grateful Dead Music Forum

A place to talk about the music of the Grateful Dead 

 #159  by wishfullthinking
 Sun May 23, 2004 1:53 pm
just listnin to 7/18/99 and the intro on rukind sounds nothing like what the dead play, any help would be nice.

 #323  by gnr
 Wed Jun 09, 2004 5:19 pm
The only version I have is from Dick's Picks 17, from the Boston Garden on 9/25/91, and I could get the first half of the intro to sound like the one played, but here's what I have:

e------0-1-3-3-3//5-3
B-1-3-----------------
G----------------------
D----------------------
A----------------------
E----------------------

If that's not lined up, try to copy and paste it into notepad or something, but thats all I have on the intro. I'm trying to work it out completely, so if/when I do, I'll post it here.
 #547  by captain_trip
 Wed Jul 21, 2004 11:53 am
heres the CORRECT quinn intro, that i tabbed out myself...hope you like it!

|------------------------------------------------------------------------------|

|--------------5-6-8----8~---8/10/8----------------------------------------|

|--------5-7----------------------------9-7~---5-7-5~----------------------|

|---5-7-----------------------------------------------------7-5---------------|

|-----------------------------------------------------------------7-5-3--------|

|-------------------------------------------------------------------------------|

 #13634  by shakedown_04092
 Mon Mar 05, 2007 9:51 pm
I don't feel like turning my brain on, so if I were playing Quinn in Bb, would the intro be:

e---------------6--6--6---8--6------------------
B---------6--8----------8-------8--6------------
G---5--7------------------------------8-8-8---
D-----------------------------------------------
A-----------------------------------------------
E-----------------------------------------------

?

Thanks in advance for the help. Sorry I'm retarted, I've had a couple of glasses of a nice Cab tonight. Mmmmmm. I have that "cheesecloth vision" that wine gives you. :cool: 8)


EDIT
Ok, this part is an edit from my above post, but feel free to answer to both posts. BUT...The post above mine....is it in G or C? I'm thinking C, but I can hear both. Blame it on the wine. If it is in C, then all I gotta do is move it down a step to satisfy my Bb perdicament, because I like that version a lot better than the one I just posted.

 #13636  by Billbbill
 Tue Mar 06, 2007 4:50 am
I believe mine is in the same key as the captain, just an octave lower with some differences. B and E with F#


--B?---------------------------E-E--B

e------------------------------0-0--2-
b------------------------------0-0--4-
g------------------------------1-1--4-
d-------------4--6-4-----------2-2--4-
a------2-4pu6---6----6po4-2----2-2--2-
E--2h4----------------------4--0-0--2-

 #13637  by Billbbill
 Tue Mar 06, 2007 4:52 am
Oops, wrong - cap is up a 1/2 step further than me.