rukind.com

Grateful Dead Music Forum

A place to talk about the music of the Grateful Dead 

 #1642  by Dozin
 Sun May 08, 2005 6:58 am
I tabbed out Bobby's part

Shakedown Street

Dm9 Octive F A
|-----12-------| |-------13------| |-----17-------|
|-----10-------| |---------------| |--------------|
|-----10-------| |-------10------| |-----14-------|
|-----12-------| |---------------| |--------------|
|--------------| |---------------| |--------------|
|--------------| |---------------| |--------------|

VERSE
D F Bb Octive F
|-----9--------| |-------10------| |----13--------| |----13--------|
|-----10-------| |-------10------| |----11--------| |--------------|
|-----12-------| |-------13------| |----10--------| |----10--------|
|-----12-------| |-------13------| |----12--------| |--------------|
|--------------| |---------------| |--------------| |--------------|
|--------------| |---------------| |--------------| |--------------|
A
|----17--------|
|--------------|
|--------------|
|----14--------|
|--------------|
|--------------|

PRE CORUS

Fmaj7 Em Dm G
|-----12-----------| |---------15---------| |----13-------| |------------------|
|-----13-----------| |---------17---------| |----15-------| |----12------------|
|-----14-----------| |---------16---------| |----14-------| |----12------------|
|------------------| |---------17---------| |----15-------| |----12------------|
|------------------| |--------------------| |-------------| |----10------------|
|------------------| |--------------------| |-------------| |------------------|

CORUS
C7 Tri Tone
|-----7------------| |--11-BEND-----------|
|-----7------------| |--10-BEND-----------|
|-----8------------| |--------------------|
|-----9------------| |--------------------|
|-----7------------| |--------------------|
|------------------| |--------------------|


Peace,

Dozin
Last edited by Dozin on Tue May 10, 2005 7:54 pm, edited 2 times in total.

 #1646  by strumminsix
 Mon May 09, 2005 10:08 am
Here is how I play the Bobby parts:


Intro and verse backings:

Well Well Well You can never tell
E -13---12---10-------13---12---10------15---
B -14---13---11-------14---13---11------16---
G --------------------------------------15--


Verse
G C F C9
Tell me this town ain?t got no he----a----rt


Chorus & jam chords

C7 - standard

E -7-------------------
B -7-------------------
G -7--8----------------
D -7-------------------
A -7-----9-------------
E -7--------------------

C7 - variation #1
E -7-------------------
B -7--------------11---
G -7--8----------------
D -7-------------------
A -7-----9-------------
E -7--------------------

C7 - variation #2
E -7-------------11---
B -7-------------11---
G -7-------------------
D -7-------------------
A -7-----9-------------
E -7--------------------

 #9868  by LazyLightnin
 Thu Oct 26, 2006 9:14 pm
how do i play the c/d chord?

 #31143  by geckonia
 Mon Nov 26, 2007 6:56 pm
You've probably figured this out by now, but just make a barre for the Dm at the 5th fret then lift your 2nd, 3rd and 4th fingers up to make a D/C. That's how I do it anyway...