rukind.com

Grateful Dead Music Forum

A place to talk about the music of the Grateful Dead 

 #29008  by Billbbill
 Sun Nov 04, 2007 1:35 pm



Original thread here
http://community.rukind.org/viewtopic.php?t=429

Intro notes: (somewhat different than in the archive)

E-------------------------------------------
B-------------------------------------------
G-----7-9b>11---9p7-9-7---------------------
D-9-9-------------------9-------------------
A-------------------------------------------
E-------------------------------------------

-----------------------A---E---B
E--------------7----------------------------
B-------------------------------------------
G------7-9b>11---9-9-7----------------------
D--9-9--------------------------------------
A-------------------------------------------
E-------------------------------------------

Bobby's verse riff:

---B---------B7-----E--B
E--------7--------------------------------------
B--------7---10-10--9---------------------------
G------------11-11--9---7h8---------------------
D--9-9-------9--9---9--9---9--------------------
A--9-9------------------------------------------
E------7----------------------------------------

 #29009  by strumminsix
 Sun Nov 04, 2007 1:39 pm
Groovy! I play those transitions more deliberate than you but I love the way you are making them work!

 #29014  by golfnutt
 Sun Nov 04, 2007 3:13 pm
Bill That is very nice thanks! :-)

 #29033  by zoppenheimer
 Sun Nov 04, 2007 8:24 pm
Really dig the fretboard design on your ax, what kind is it?

 #29049  by gr8fulbluz
 Mon Nov 05, 2007 6:48 am
Cool beans great stuff
Thanks :cool:

 #29053  by Billbbill
 Mon Nov 05, 2007 8:23 am
zoppenheimer wrote:Really dig the fretboard design on your ax, what kind is it?
"vine of life" inlay

Schechter C-1 Classic


Version:
2 volume nob
1 tone
5 position p/u switch

http://www.schecterguitars.com/spec.asp?id=3

Love this thing - great sustain

 #29055  by waldo041
 Mon Nov 05, 2007 8:52 am
thanxs for the contibution!

peace,
waldo