rukind.com

Grateful Dead Music Forum

A place to talk about the music of the Grateful Dead 

 #22967  by XxRouninxX
 Fri Aug 24, 2007 11:38 pm
okay this solo is a handful, and im new to tabbing to bear with me. I'm only 20 seconds in, but i have the first "paragraph" transcribed. Enjoy, ill be back with part two tomorrow or sunday.

(/) Slide Up () Slide Down (h) Hammer On (p) Pull Off (b) Bend (r) Release (v) Vibrato

........1:41.............................1:44
E|----------------------------------------------
B|-----------------------------12----14p12------
G|---------------9----9--11/13----13-------13---
D|------9h11-11----11---------------------------
A|-9/11-----------------------------------------
E|----------------------------------------------

....1:45.............1:46.............1:47
E|---------------------------------------
B|---------------------------------------
G|-12r11p9--------11-13----11-------11---
D|---------11/13--------14----12/13------
A|---------------------------------------
E|---------------------------------------

........1:48......................1:49
E|--------------------------------------
B|--------------------------------------
G|--------------------9-----9-11p9------
D|-12p11p9----9-10-11----11--------11---
A|---------11---------------------------
E|--------------------------------------

...1:50...............................................1:53
E|------------------------------------------------------------
B|-------12--14-12--------------------------------------------
G|-11/13-----------13--12r11p9----9-11p9----9-----------------
D|-----------------------------11--------11----11p9----9h11---
A|--------------------------------------------------11--------
E|------------------------------------------------------------

...1:54................1:55.............1:58
E|-------------------------------------------
B|-------------------------------------------
G|-------------------------------------------
D|-9-----------------------------------------
A|---9/11-11-11p9-7--7---7------7---7-9/11---
E|---------------------9------9---9----------

....1:59..................2:00.......2:01
E|-----------------------------------------------------
B|-----------------------------------------------------
G|-----------------------------------------------------
D|------9----11-9----9-----------------------9-10-12---
A|-9/11---11------11---11-10-10p9\7---7----------------
E|----------------------------------9------------------

 #23079  by GratefulPat
 Sun Aug 26, 2007 1:38 pm
i thought u said there was a video too?

 #23080  by XxRouninxX
 Sun Aug 26, 2007 1:40 pm
http://youtube.com/watch?v=MTuhMmxmUPQ

im workin on the next 20 seconds (solo is 62 seconds, im doing three parts) but im kinda stuck on a part as far as tabbing it goes, but hopefully ill have part 2 tab and video up tonight

 #23082  by XxRouninxX
 Sun Aug 26, 2007 1:43 pm
wow my B strings flat on that one, lol it dictates a new video

 #23084  by GratefulPat
 Sun Aug 26, 2007 1:45 pm
found it... sweeeet