rukind.com

Grateful Dead Music Forum

A place to talk about the music of the Grateful Dead 

 #22976  by GratefulPat
 Sat Aug 25, 2007 9:15 am
see how this sounds, w/o guitar in hand i think this is how i play it. listen to figure out for pauses.
E|-------------------------------------------------------------------------
B|-------------------------------------------------------------------------
G|------------------------1--1--1---------------4--6-----------------------
D|------------------------2--2--2----------4/6--------6--4--2--------2-----
A|--2-------2--2----------2--2--2-------2----------------------2--4--------
E|-----2h4--------4p2--0-----------2h4-------------------------------------

E|------------------------------------------------------------------------------
B|---------------------------------------------4--4--4--------------------------
G|---------------------------1--1--1-----------4--4--4--------------------------
D|---------------------------2--2--2-----------4--4--4--------------------------
A|-------2--2--2--2----------2--2--2--------2-----------2-----------------2-----
E|--2h4--------------4p2--0-----------2--4-----------------4--2--0--2--4--------
http://www.guitartabcrea

 #22980  by strumminsix
 Sat Aug 25, 2007 12:02 pm
*awful* :twisted:

 #22983  by XxRouninxX
 Sat Aug 25, 2007 12:10 pm
what version are you transcribing from?

 #22984  by GratefulPat
 Sat Aug 25, 2007 12:23 pm
none specific. that w/o guitar in hand. it sounds great if i had guitar in hand

 #22985  by XxRouninxX
 Sat Aug 25, 2007 12:26 pm
for some reason i cant catch the phrasing im gonna dig up a couple of copes of sugaree and try it again ;)

 #22992  by Billbbill
 Sat Aug 25, 2007 12:53 pm
I pulled this from an earlier post of mine and added the more generic second line.


'I use my pinky to barre - many use the third finger

e---------2-2-2-2--------0-0-0-0-------------
b---------4-4-4-4--------0-0-0-0--------------
g---------4-4-4-4--------1-2-1---------------
d---------4-4-4-4--------2-2-2--------------
a------2--2-2-2-2--------2-2-2---------------
e-2-3-4-2--------4-3-2-0-0-0-0-----------------

e-------------------------------0
b-------------------------0-0-0-0-------
g-------------------------1-2-1------
d----------4-6-4----------2-2-2-----
a----2--/6-------6po4-2---2-2-2-------
e-2h4-------------------0-0-0-0--------'

 #22994  by deadguise
 Sat Aug 25, 2007 1:08 pm
here's another way...( /=slide up)

-----------------------------------------
-----------------------------------------
--------------------1---0-1--2-0-1-------
--------------------2-2------------------
-----2----2-2-------2--------------------
-1/2----2-----4-3-2-0--------------------


-----------------------------------------
-----------------------------------------
-----------------------1---0-1--2-0-1----
----------4-6-4-1------2-2---------------
-----2--2---------4-2--2-----------------
-1/2-------------------0----------------

there's sort of a trill on the -0-1-

 #22997  by strumminsix
 Sat Aug 25, 2007 1:18 pm
I dig the style you are capturing, G-Pat, but I think you are forgetting the Esus4 or at least the single note of A.

 #23000  by GratefulPat
 Sat Aug 25, 2007 1:40 pm
i believe mine and ebicks are very similar mine just hitting more notes... thanks strummin...

 #23001  by GratefulPat
 Sat Aug 25, 2007 1:40 pm
ooooops i meant billbills, not payin attention

 #23015  by caspersvapors
 Sat Aug 25, 2007 4:04 pm
I also think when he would hit the e chord in the intro Jerry or Bobby would add an A then do a little trill on the E, like this

E|------------------------------------
B|---------------------------------------------------------
G|----------------1--1--2--1p0h1p0h1-------------------
D|----------------2--2--2--2-----------------
A|----------------2--2--2--2-----------
E|-------------------------------------
Last edited by caspersvapors on Sun Aug 26, 2007 1:05 pm, edited 1 time in total.

 #23023  by GratefulPat
 Sat Aug 25, 2007 7:13 pm
ya thats bobby doin that. i tabbed what i felt jerry plays on an AVERAGE night