rukind.com

Grateful Dead Music Forum

A place to talk about the music of the Grateful Dead 

 #20766  by d-v-s
 Wed Jul 18, 2007 6:22 am
i'm listening to the studio version of this song. During the "tore up, yeah yeah yeah, tore up" bit, jerry plays this little riff after he says tore up. It sounds like he's hitting multiple notes there (partial chords), though it could just be chorus effect or something, but i think I've tried every combo of notes in that area and can't get a similar sound.

this is what i'm playing. any other recommendations?


E|---------------------------------------
B|---------------------------------------
G|----8h9-10-9-10--10/12-10-8h9-8--------
D|-10----------------------------10-10---
A|---------------------------------------
E|---------------------------------------

 #20814  by Billbbill
 Wed Jul 18, 2007 4:07 pm
I think the other note your hearing is on the b string dvs. I'm adding it below and for the sake of the 2 note voicing, dropping the slide up from 10 to 12 on the g.

---C------F--C-F--C7-F--C
E|---------------------------------------
B|----8---10-8-10-11-10-8--------------
G|----8h9-10-9-10-12-10-8h9-8--------
D|-10------------------------10-10---
A|---------------------------------------
E|---------------------------------------

 #20852  by d-v-s
 Thu Jul 19, 2007 5:50 am
bill, thanks so much. that just made my day. the extra voicings give that riff a nice sound.

:smile: :cool: