rukind.com

Grateful Dead Music Forum

A place to talk about the music of the Grateful Dead 

 #4653  by b weird
 Tue Apr 04, 2006 1:14 pm
e|----------------------------- B|-10-b-10-8-----------7-7----- G|-----------9-v-7-9-9-----9--- D|----------------------------- A|----------------------------- E|----------------------------- e|------------------------------ B|-7-9---------------------8-b-8 G|-------------7---7-9-7-------- D|---------------9-------9------ A|-----7-x-x-x------------------ E|------------------------------ e|------------------------------ B|-----------8-b-8-------------- G|-9-7-9-9-9-------9-7---9------ D|---------------------9---9---- A|------------------------------ E|------------------------------ e|------------------------------ B|---------8-b-8---------------- G|-7-9-7-9-------9-7---9---7---- D|-------------------9---9---9-7 A|------------------------------ E|------------------------------ Now this will be the second time Ive tried this and I hope it works.This is the intro for the Me and My Uncle on Skull and Roses and I think its right.
 #4685  by waldo041
 Tue Apr 04, 2006 10:48 pm
b weird wrote: e|-----------------------------
B|-10-b-10-8-----------7-7-----
G|-----------9-v-7-9-9-----9---
D|-----------------------------
A|-----------------------------
E|-----------------------------

e|------------------------------
B|-7-9---------------------8-b-8
G|-------------7---7-9-7--------
D|---------------9-------9------
A|-----7-x-x-x------------------
E|------------------------------

e|------------------------------
B|-----------8-b-8--------------
G|-9-7-9-9-9-------9-7---9------
D|---------------------9---9----
A|------------------------------
E|------------------------------

e|------------------------------
B|---------8-b-8----------------
G|-7-9-7-9-------9-7---9---7----
D|-------------------9---9---9-7
A|------------------------------
E|------------------------------
peace,
waldo

 #15578  by b weird
 Wed Apr 25, 2007 1:58 pm
Here's the good post, well Waldo's revision anyway. :cool: P.S. This intro came from some Dead tab book which said they tabbed out the Skullfuck version. I personaly do not think it sounds right.

 #15589  by Billbbill
 Wed Apr 25, 2007 7:00 pm
Here's my take from a different thread
Code: Select all
This is the [b]OLD[/b] lick.  I've never heard this w/o Jerry so I have no idea how close this is to the new live versions.  For those interested in this you can bend from 7 to 9 on the D, pick it and hold it, and then hit the 7 on G, hit the bent D again before dropping off to 7 on the D, pull off to 5 and then the 7 on the A. Whew! I don't tab well enough to tab the above.

in E 

--Em--------------------------B---------Em 
e 
b---------------------------8------------- 
g--9-9po7-9-9po7-9-9po7--9------7--------
d-----------------------------9---9-7-5--- 
a---------------------------------------7