rukind.com

Grateful Dead Music Forum

A place to talk about the music of the Grateful Dead 

 #12957  by Darkhorse014
 Mon Feb 19, 2007 10:08 am
Could somebody try to tab this version out for me....

 #12961  by confusions_prince
 Mon Feb 19, 2007 11:59 am
Hi. There were 28 "Deep Elem"s in 1970.

03-20-70b Capitol Theater, Port Chester, N.Y.
03-21-70b Capitol Theater, Port Chester, N.Y.
04-03-70 Field House, U. of Cincinnati, Cincinnati, Oh.
04-09-70 Fillmore West, San Francisco, Ca.
04-10-70 Fillmore West, San Francisco, Ca.
04-11-70 Fillmore West, San Francisco, Ca.
04-12-70 Fillmore West, San Francisco, Ca.
04-17-70 Family Dog at the Great Highway, San Francisco, Ca.
04-18-70 Family Dog at the Great Highway, San Francisco, Ca.
04-19-70 Family Dog at the Great Highway, San Francisco, Ca.
05-02-70 Harpur College, S.U.N.Y., Binghamton, N.Y.
05-07-70 Dupont Gymnasium, M.I.T., Cambridge, Ma.
05-09-70 Worcester Polytechnic Institute, Worcester, Ma.
05-14-70 Merramec Community College, Kirkwood, Mo.
06-04-70 Fillmore West, San Francisco, Ca.
06-06-70 Fillmore West, San Francisco, Ca.
06-24-70b Capitol Theater, Port Chester, N.Y.
07-14-70 Euphoria Ballroom, San Rafael, Ca.
08-05-70 Golden Hall, Community Concourse, San Diego, Ca.
09-17-70 Fillmore East, New York, N.Y.
09-20-70 Fillmore East, New York, N.Y.
10-10-70 Colden Auditorium, Queens College, Queens, N.Y.
11-06-70 Capitol Theater, Port Chester, N.Y.
11-07-70 Capitol Theater, Port Chester, N.Y.
11-09-70 Action House, Island Park, N.Y.
12-23-70 Winterland Arena, San Francisco, Ca.
12-27-70b Legion Stadium, El Monte, Ca.
12-28-70 Legion Stadium, El Monte, Ca.

 #12962  by ronster
 Mon Feb 19, 2007 12:30 pm
Excellent tab of Jerry's more common later version in the key of E on this site. I believe back in 1970 they may of done this in the key of A and a little more strumming then flatpicking. For the most part move the tab up one string to get from E to A and use A7, D7 and E7 chords.

 #12982  by GratefulFloyd
 Mon Feb 19, 2007 11:30 pm
that Deep Elem from 9-20 is one of my all-time favorite Dead songs, it sounds pure and awesome, i love it

 #12988  by st. stephen
 Tue Feb 20, 2007 8:23 am
hey, i've got a version where are playing something like that as the common riff:
(/) Slide Up () Slide Down (h) Hammer On (p) Pull Off (b) Bend (r) Release (v) Vibrato

E|------------5--------8b9--5----
B|-------5-------8--5-----------
G|--5h6----------------------
D|---------------------------
A|---------------------------
E|---------------------------
http://www.guitartabcreator.com

 #12997  by chuck
 Tue Feb 20, 2007 11:36 am
great version of this song. heres an attempt at bob's part from 11-06-70. not perfect but some ideas to work with. id loved to see a good tab of this if anyone knows anymore about this version.

E|-------------------------------------------------
B|-----------------------2---------------1/2-------
G|-----------0-----------2-------------------5-2---
D|-------0h2---2-0-------2---------------1/2-------
A|-0-3-4-----------3-4-0-------0---0---0-----------
E|-------------------------0-2---2---2-------------
 #13019  by 777GMoney
 Tue Feb 20, 2007 9:29 pm
This is the Deep Elem Blues I learned off the Reckoning Album This is my first post and attempt at this I have played guitar for over 25 years but am new at this so let me know if you like it and I will do some more GMoney


E7
E|-------------------------------
B|-------------------------------
G|-------------------------------
D|-------------2--2--0-----------
A|----------2-----------4--2-----
E|--0--0/4----------------------- 3 Times Then...

E|------------------------------
B|------------------------------
G|------------------------------
D|-------------2--0-------------
A|----------2--------0----------
E|--0--0/4--------------3p0-----


A7
E|-------------------------------------------------------------------
B|-------------------------------------------------------------------
G|--------------2------------------------------------0h1p0-----------
D|--------------2-------2-----5--4--2-------2---------------0--2-----
A|--------------2--0/4-----0-----------0h3-----3--0------------------
E|--0--2--3--4-------------------------------------------------------

B7 E7
E|-----------2------------------------------------------
B|------------------------------------------------------
G|-----------2-------------------------0h1--0-----------
D|-----------1----------------2----------------0--2-----
A|-----0--1--2--2--0------------------------------------
E|--3-----------------3--0h3-----3--0-------------------
http://www.guitartabcreator.com

 #13028  by ronster
 Wed Feb 21, 2007 8:29 am
Heres the intro from 9-20-70 which is a really laid back version of the way they did on 5-2-70. The main run using an A7 chord is similar to black peter.

E|--------------------------------------------------------------------------------------------------
B|-------2--------------------2-------2-----------------2----------2-----------------2--------------
G|-------0--------------------0-------0-----------------0----------0-----------------0--------------
D|--1h2-----1--0--------------2-------2-----------------2----------2------------1h2-----1--0--------
A|-----------------3--0-----------0--------------0------------0--------------0----------------3--0--
E|----------------------------------------0--2-------------------------0--2-------------------------
just follow with a run (G)(G#)(A) into D7 000212
back to the A7 thing and the run (D)(D#)(E)into E7 022130
and back to A7.

 #13032  by ronster
 Wed Feb 21, 2007 9:08 am
Sorry the tab didn't fit. My first tab post here. Anyway to know before hand how long a tab can be? It fit in the scren on the preview mode.
I'll try again

E|----------------------------------------------------------------------
B|-----2-------------2-----2-----------2-----2--------------2-----------
G|-----0-------------0-----0-----------0-----0--------------0-----------
D|1h2-----1--0-------2-----2-----------2-----2---------1h2-----1--0-----
A|-------------3--0-----0-----------0-----0---------0---------------3--0
E|----------------------------0--2-------------0-2----------------------

 #13054  by Darkhorse014
 Wed Feb 21, 2007 5:04 pm
wow im suprised all of these other people know of this, thanks sooo much

Peace and Love

 #13065  by jjbankhead
 Wed Feb 21, 2007 8:53 pm
i am looking for tabs that correspond more with the DP v.8 from Harpur college NY may 2nd, 1970 would anyone say that these tabbed out parts match up with that?

the only two versions i am familiar with are that DP v8 and a youtube clip with bob and Jerry playing it on the letterman show circa late 70s or early 80s...
the letterman show version is much faster in tempo than that DP version.
 #13067  by 777GMoney
 Wed Feb 21, 2007 10:32 pm
Ok, as I mentioned before, i knew the 1980 Version from Reckoning done in the Key of E. I really think that is the best version of the song. BUT because you asked so nice, i went and listened to Harpur College Version That is in the Key of A7 and the main riff goes something like this(very similiar to Black Peter as someone else pointed out-same key/chord etc



E|---------------------------
B|----------2----------2-----
G|---------------------------
D|--1p0-----2----------2-----
A|-------3----------0--------
E|-------------3p0-----------


A7 D7 A7 E7 D7 A7 etc

 #13115  by jjbankhead
 Thu Feb 22, 2007 11:42 pm
ronster wrote:Heres the intro from 9-20-70 which is a really laid back version of the way they did on 5-2-70. The main run using an A7 chord is similar to black peter.

E|--------------------------------------------------------------------------------------------------
B|-------2--------------------2-------2-----------------2----------2-----------------2--------------
G|-------0--------------------0-------0-----------------0----------0-----------------0--------------
D|--1h2-----1--0--------------2-------2-----------------2----------2------------1h2-----1--0--------
A|-----------------3--0-----------0--------------0------------0--------------0----------------3--0--
E|----------------------------------------0--2-------------------------0--2-------------------------
just follow with a run (G)(G#)(A) into D7 000212
back to the A7 thing and the run (D)(D#)(E)into E7 022130
and back to A7.
man sorry i completly missed that part of your post... thanks again