rukind.com

Grateful Dead Music Forum

A place to talk about the music of the Grateful Dead 

 #58003  by Tennessee Jedi
 Thu Mar 19, 2009 7:41 am
Can anyone tab out the main riff for me ?
I pretty much play it around a 12th fret E chord.
I just can't dial it in ....
:oops:
Thanks
Been on a Jerry Band kick ...
:D
 #58026  by Billbbill
 Thu Mar 19, 2009 2:21 pm
I've always started this in d

(/) Slide Up (\) Slide Down (h) Hammer On (p) Pull Off (b) Bend (r) Release (v) Vibrato

E|----------------------------------
B|----------------------------------
G|------------9----8--7------------7--
D|---------7-------------7--9--10-----
A|------9---------------------------
E|--10------------------------------
http://www.guitartabcreator.com
 #127928  by maximinus
 Tue May 14, 2013 6:33 am
I too came here looking for an answer. I got this from the original album version:
Code: Select all
E|-----------------------
B|--------7--5>7-5-------
G|-----------------4-6-7-
D|----6-9----------------
A|->7--------------------
E|-----------------------