rukind.com

Grateful Dead Music Forum

A place to talk about the music of the Grateful Dead 

 #12685  by BigJilm
 Tue Feb 13, 2007 11:14 am
Heres the solo to dire wolf from Reckoning

Chord--G---------------------------------Bb----------
E|-------------3----------7-----7--------6-----6--8\6
B|---------------------------------------------------
G|--5--4--3h4-----4--4/7-----7-----6--7-----7--------
D|---------------------------------------------------
A|---------------------------------------------------
E|---------------------------------------------------

Chord--------F---------------------------------------
E|--6\5--6--7--8--4h5---------------3-----------1----
B|---------------------6---------------x-------------
G|------------------------5\4\3--3-----x--1--2-------
D|-------------------------------------x-----------3-
A|---------------------------------------------------
E|---------------------------------------------------


E|------------------------------------------------
B|----------------------1-----1-----3--2p1--0-----
G|-------------0--1--2-----2-----2----------------
D|-------2--3-------------------------------------
A|--3h5-------------------------------------------
E|------------------------------------------------

Chord-G-----------F---------------------G-----------
E|-------3----------------------------------------3-
B|--------------------------------------------------
G|--2/4--------4\--/2-----0h2/3-----2--2/4-----3/4--
D|----------0--------3---------3----------5---------
A|--------------------------------------------------
E|--------------------------------------------------

Chord-C---------Bb---------F---------------------
E|-------5p3-------------------------------------
B|--4h5-------4\3p1--3-----1---------------------
G|----------------------2-----2-----1h2----------
D|-------------------------------3-------3\2-----
A|-----------------------------------------------
E|-----------------------------------------------

Chord-G----------F-----------------------C-
E|-----------------------------------------
B|-----------------------------------------
G|----------0--0--2--0-------0-------------
D|--0-------------------1/2-----1p0--------
A|-----1/2---------------------------3-----
E|-----------------------------------------

Chord-----------------------G-----
E|--------------0-----------------
B|--------------1-----------------
G|--0--------0--------------------
D|--2--2-(2)----------------------
A|--3--------------3--2--0--------
E|--------------------------3-----

I did not realize u could add barlines n rests till 2 secs ago when i finished it, so sorry bout that. I guess ur on ur own with the timing, but just listen to reckoning and im sure ull get it. Dire Wolf on Reckoning is played in the key of C, while on WD it is played in the key of A. But the chord progressions throughout the solo r placed over the exact note of the chord change so that should help
Last edited by BigJilm on Tue Feb 13, 2007 11:34 am, edited 1 time in total.

 #12687  by BigJilm
 Tue Feb 13, 2007 11:20 am
i fixed it so the chords r in the rite place

 #12688  by b weird
 Tue Feb 13, 2007 11:23 am
Thanks that help's a ton. Also on average how long does it take to tab out a whole song? I was just wondering.

 #12689  by BigJilm
 Tue Feb 13, 2007 11:27 am
Wat do u mean how long it takes for me to put this stuff up on the page?

 #12690  by BigJilm
 Tue Feb 13, 2007 11:35 am
i accidentally put the same part on there twice and left out a part, but i just fixed it