rukind.com

Grateful Dead Music Forum

A place to talk about the music of the Grateful Dead 

 #1248  by captain_trip_420
 Thu Nov 18, 2004 9:08 pm
Here it is. alot alike dancin' intro for bobby.

----------------------
-12--12--12-13-13-13--
-12--12--12-12-12-12--
-11--11--11-11-11-11--
----------------------
----------------------

 #1257  by Billbbill
 Fri Nov 19, 2004 2:26 pm
Hey again,
I'm feelin' weird about that C# note you have for Bob's intro. I always had it as a straight G7 - G7sus4 chord thing on the 10th through 13th frets. Is there a particular version where you here this? Or is it just your general feel?
Bill
 #1271  by jhc
 Tue Nov 23, 2004 9:52 pm
Why not:

-7--7--7----8--------
-6--6--6----6---------
-7--7--7----7---------
----------------------
----------------------
----------------------?

 #1272  by Billbbill
 Tue Nov 23, 2004 10:55 pm
That works.
 #1538  by strumminsix
 Tue Apr 05, 2005 8:17 am
[quote="jhc"]Why not:

-7--7--7----8--------
-6--6--6----6---------
-7--7--7----7---------
----------------------
----------------------
----------------------?[/quote]

That's exactly right.
90% of the time Bobby accents using D or C shapped barres.

 #12167  by Dozin
 Mon Jan 29, 2007 1:25 pm
How do you think Bob is playing this intro?

http://www.youtube.com/watch?v=3JH1qIv32z4

I think Captain is right

 #12172  by Billbbill
 Mon Jan 29, 2007 2:51 pm
Looks and sounds to me like what I'd said above


--G7--------------G7sus4

e-----------------------
b--12---12---12---13-13-13--
g--10---10---10---10-10-10--
d--12---12---12---12-12-12--

 #12183  by phreaker
 Mon Jan 29, 2007 7:17 pm
Bill's got it.

 #12186  by Dozin
 Mon Jan 29, 2007 7:51 pm
I agree.

I was watching downhill from here today and was noticing bob doing a little bar slide from the 10th fret to the 12th that sounds pretty good.

 #12201  by HOWEYMAN
 Tue Jan 30, 2007 12:11 pm
Or just say screw it and play the acoustic version off Workingmans Dead where it is just a straight barred G at the third fret. lolololo