rukind.com

Grateful Dead Music Forum

A place to talk about the music of the Grateful Dead 

 #1249  by captain_trip_420
 Thu Nov 18, 2004 9:12 pm
here is a fun intro, fun to change it up and do slides in it...

--------------------------
--------------------------
--------------------------
----------3-3---3-5-------
----3h4h5-----5-----------
-3------------------------

try this one to change it up

--------------------------
--------------------------
--------------------------
---------3-3---3-5--------
-----3/5-----5------------
-1/3----------------------
 #1256  by Billbbill
 Fri Nov 19, 2004 2:23 pm
Hey CT,
I've got that same lick that you posted. Funny how it's so similar to Jerry's "Dear Mr. Fantasy" lick, if one didn't play guitar you wouldn't have a clue that it's so close.

Here's my take on the "other" intro lick.
--------------------C G
e----------------------------
b-------------------5-3-------
g-------------------5-3h4-----
d-------------------5-5---
a------0h1h2--3h4h5-------
e-1h2h3----------------

Note: Correction as of 1/1/05. Somehow had three 3's for C chord instead of 5's. Major brain lock.

Bill