Grateful Dead Music Forum

A place to talk about the music of the Grateful Dead 

 #116337  by amyjared
 Sun Jul 22, 2012 12:24 pm
Anyone have some tab of the riff in this song? Thanks!
 #116342  by ronster
 Sun Jul 22, 2012 7:33 pm
I play it in the key of G with the following lick:
Code: Select all
E ----------------------------|
B –3s5-3----------------------|
G -------4s2-0-----0-2b-2b-0--|
A -------------0h2------------
 #116363  by amyjared
 Mon Jul 23, 2012 9:46 am
Thanks! I play it in G as well, but not a huge fan of the open strings, so I'll just transpose it to another spot, but really appreciate it!
 #116397  by ronster
 Mon Jul 23, 2012 6:48 pm
he's doing it like this
Code: Select all
E ---------------------------|
B ---------------------------|
G –7s9-7---------------------|
D --------9p7s5---5-7b-7b-5--|
A --------------7------------|
E ---------------------------|
 #116465  by amyjared
 Tue Jul 24, 2012 9:26 pm
That's so funny, I transposed it up there, saw the video and was doing it just like Jer! Thanks for the help, was really appreciated. Now, one more question from you theory folks....Eb? Huh? Uh, why? How? And yet it works...