rukind.com

Grateful Dead Music Forum

A place to talk about the music of the Grateful Dead 

 #11620  by BlobWeird
 Mon Jan 08, 2007 1:12 pm
Here's that solo I was talkin about from DP18. Id say its about 98% correct.

E|-----------------------------------------------------------------------
B|-----------------------------------------------------------------------
G|------------------------4----------------4h5p4--------5--4--5--6b7-----
D|------------------5--7----------4--5--7---------5--7-------------------
A|---------------------------5-------------------------------------------
E|--2--3--6\5--3---------------------------------------------------------

E|---------10----------------------------------------------------
B|--10b12------12r10--8----------10-----8--8--10b12r10b12r10-----
G|-----------------------9--7--------9---------------------------
D|---------------------------------------------------------------
A|---------------------------------------------------------------
E|---------------------------------------------------------------

E|-----------------------------8----12b13r12----13p12---------------------12-----
B|--8-------------------8--10--------------------------13--15p13--13--15---------
G|-----9--7--9b10----9-----------------------------------------------------------
D|-------------------------------------------------------------------------------
A|-------------------------------------------------------------------------------
E|-------------------------------------------------------------------------------

E|--16--16r14--------------------12---------------------------------------------------------------
B|-------------15--------------------15----------------------------------12-----------------------
G|-----------------14b15--14b15----------14b15--14b15--12------14b15r14------(12)--14--14b16r14---12-
D|---------------------------------------------------------14-------------------------------------
A|------------------------------------------------------------------------------------------------
E|------------------------------------------------------------------------------------------------

E|---------15--15--17--18--19--20--19----15--17--17b18--15--17b18--17b18--15------------
B|----------------------------------------------------------------------------15b17-----
G|--14/16-------------------------------------------------------------------------------
D|--------------------------------------------------------------------------------------
A|--------------------------------------------------------------------------------------
E|--------------------------------------------------------------------------------------

E|------------------------------------------------
B|--17--------------15--------------17r15--13-----
G|------17--14------------------17----------------
D|--------------16------14--16--------------------
A|------------------------------------------------
E|------------------------------------------------

E|-------------------------------------------------------|------------------------------------------
B|--15p13--12----12--13--15----13--12------------12--13--|--13--12-------------12--13p12--13p12-----
G|-------------------------------------14----14----------|-----------------14-----------------------
D|-------------------------------------------------------|----------15p14---------------------------
A|-------------------------------------------------------|------------------------------------------
E|-------------------------------------------------------|------------------------------------------

E|--------------------------------------------15---------15------15--12---------
B|-----------------------------------------------------------------------15-----
G|--12--------------12------12--14p12--14/16------14/16------16-----------------
D|------15--14--15------15------------------------------------------------------
A|------------------------------------------------------------------------------
E|------------------------------------------------------------------------------

E|----------13--12---------------------12-------------(15)----------12---------15--15-----
B|------------------15--13p12--13--15-----------------------------------15/17-------------
G|--12--14---------------------------------16r14--12------16p14\12------------------------
D|----------------------------------------------------------------------------------------
A|----------------------------------------------------------------------------------------
E|----------------------------------------------------------------------------------------

E|--17b19r17--15--17p15--17b19--17b19r17--15--15-----
B|---------------------------------------------------
G|---------------------------------------------------
D|---------------------------------------------------
A|---------------------------------------------------
E|---------------------------------------------------

And there ya have it. So yeah i did all this without a guitar in hand, believe it or not lol. So there might be a mistake or two when it comes to the bends and such but it shouldnt be hard to figure out from here. Let me know what you think.

 #11640  by Cosmic Jimmy
 Mon Jan 08, 2007 5:22 pm
what song is this to??

 #11642  by kevo
 Mon Jan 08, 2007 6:02 pm
Cosmic Jimmy wrote:what song is this to??
Well, it's under TLEO...

 #11661  by weedar
 Tue Jan 09, 2007 6:56 am
I don't get the b's and r's...Are b's bends? And if so, how
do you bend 10b12? Bend a 10 and then while bending slide down
to 12?

 #11665  by Billbbill
 Tue Jan 09, 2007 8:06 am
I'm not the author but I'd bet the 10b12 is hitting the 10 and bending it for a full step tonal change to the 12 tonal equivalent. Or not.

 #11678  by hesgone95
 Tue Jan 09, 2007 9:30 am
weedar wrote:I don't get the b's and r's...Are b's bends? And if so, how
do you bend 10b12? Bend a 10 and then while bending slide down
to 12?
I'd say b=bend, r=release. And Bill is right 10b12 is just what he said. I think these are standard tab notations, right?

 #11689  by BlobWeird
 Tue Jan 09, 2007 12:23 pm
Ok guys if you see 10b12 that means start at the 10th fret and bend up to 12 and stop it. Which means do not let the bend go back down. Now if you see 10b12r10 that means start at 10 bend it up to the note at 12 then let the bend come back down. I didnt realize it was this uncommon. Ive seen this many times before so I figured it was common knowledge but either way sorry for the inconvenience.

 #11690  by BlobWeird
 Tue Jan 09, 2007 12:26 pm
Oh and on the second bar right in the beginning you'll see 10b12 then 10 then 12r10. Your gonna wanna take your ring finger and throw it on the 10 and bend to 12 and hold it there while takin your pinky and puttin it on the 10 below it and hit that. then hit the bent note and release. I couldnt think of a correct way of writin this. Anyone know a better way to write that? Seeing as Jerry and ALOT of other players use this lick alot id like a nice easy way to tab it.