rukind.com

Grateful Dead Music Forum

A place to talk about the music of the Grateful Dead 

 #397  by violanojblues
 Tue Jun 29, 2004 1:37 pm
There is a great display of the chord intro for this song, but has anyone tabbed out the little riff that Jerry plays before the verses? Please help.
jtelgenhof@biotecdental.com
 #1196  by Billbbill
 Sat Oct 23, 2004 5:20 pm
Intro + lick at end that leads to verse


--D------F------C-----------Eb-----A7------D7------G
e-14--14-13-13-----------12-11-----------------------
b------------------------------------14-------10-9-8
g----------------12p11h12----------------------------
d-------------------------------13h14-----9h10------

doubletime
---D---------F----C--------Eb---A7-------D7-----G-------G
e--14-14--14-13--12-12--12-11---------------------------
b---------------------------------14-------10->12--------
g--------------------------------------------------------
d----------------------------13h14-----9h10--->12-----5
a--------------------------------------------------5h7
e-------------------------------------------------------3

 #40547  by b weird
 Wed Mar 26, 2008 10:27 am
Here's how I play the lead part. Not too much different than Billbill's.
Code: Select all
E--14-14-13-13--12-12-11----------9-----5-4-3-
B---------------------------------------------
G----------------------------7h9-----5--------
D--------------------------------------------- 
A--------------------------------------------- 
E---------------------------------------------

doubletime  
E--14-13----12--11------9----5-5/7----------- 
B-------------------------------------------- 
G--14-14----12--12----9----5---5/7-----------
D-------------------------------------------- 
A-------------------------------------------- 
E--------------------------------------------

 #40616  by b weird
 Thu Mar 27, 2008 9:29 am
Yeah, I guess I did. I was looking for the solo after the "All fall down..." verses but there wasn't anything.