rukind.com

Grateful Dead Music Forum

A place to talk about the music of the Grateful Dead 

 #1768  by captain_trip_420
 Thu Jun 23, 2005 2:39 pm
Jerry's Intro for Picasso Moon: just tabbed it out.
For chords check out, deadstein.com ,since they arent here on rukind.
E---------------------------|---------------------------------
B---------------------------|---------------------------------
G---------------------------|---------------------------------
D---------------------------|---------------------------------
A-12-----------12-10~-------|--------12--12-------------------
E---11-12-14-12-------------|----------11--11-12\19-17~-------

 #1802  by captain_trip_420
 Sun Jul 24, 2005 9:24 am
A-12-----------12-10~-------|
E---11-12-14-11-------------|

this can be used aswell
 #77553  by onlinejack
 Fri Apr 09, 2010 2:27 am
I believe you substitute a 4th in place of the 3rd. aren't the opening chords of the verse in Jack Straw Esus7 to Fsharp sus 7?

I believe it is played as follows

Esus7 Fshp sus7
---------2---
---------2---
--2------4---
--0------2---
--2------4---
---------2---