rukind.com

Grateful Dead Music Forum

A place to talk about the music of the Grateful Dead 

 #71649  by 9 mile skid
 Tue Jan 12, 2010 3:40 pm
Another take on the studio version, with different positions than the posted one:
Code: Select all
 SOLO 1
E----------------------|---------------------|------------------|-------------
B-----5----------------|---------------------|------------------|-------------
G-----5----------------|------------7--------|-10-10------------|---------12--
D-----5--------------5-|-----7--8/9----------|-10-10-10h12-10---|---12-14-12--
A---3---------5--6/7---|-8/9-----------11h12-|----------------12/14-----------
E---------6/7----------|---------------------|------------------|-------------

E----------------------|---------------------|---------------------|---------------1--
B-----5----------------|---------------------|--6---------5--------|-1-3-1-0---0------
G-----5----------------|------------7--------|----5---5-----4---4--|-------0---0------
D-----5--------------5-|-----7--8/9----------|------7---------6----|-2---2-0---0-0----
A---3---------5--6/7---|-8/9-----------11h12-|---------------------|------------------
E---------6/7----------|---------------------|---------------------|---------3--------