rukind.com

Grateful Dead Music Forum

A place to talk about the music of the Grateful Dead 

When it doesn't fit anywhere else
 #11392  by Seriesnuns
 Wed Dec 27, 2006 3:58 pm
so i've been listening to this with jerry doing it and i also got versions of the cheese doing it.

I've been doing some reaserch on the song trying to figure out tabs for it. Came along Albert King did the song.

Anyone can help with chord or a tab riff?

Thanks!

 #11393  by b weird
 Wed Dec 27, 2006 5:47 pm
[C7]Get out of my life woman
[C7]I don't love you no more
[F7]Get out of my life woman
[F7]I don't love you no [C7]more
[Bb7]Get out of my life woman[F7]
[F7]Nothin' but heartaches by the[C7]score
Code: Select all
Here is the only "Get Out Of My Life" that I know of, I hope its the right one. Words and music by: Allen Toussaint. Also all the rest of the verses follow the same pattern.

 #11398  by Billbbill
 Wed Dec 27, 2006 9:23 pm
--C

e-----------------------------
b-----------------------------
g--------5---------------------
d----------8-8-7-5----------------
a----6h7-----------6h7--------------
E-8-8--------------------------

--C

e-----------------------------
b-----------------------------
g--------5---------------------
d----------8-8-7-5----------------
a----6h7-----------6h7----------
E-8-8--------------------------

--F

e-----------------------------
b----------6-------------------
g------------8-8-7-5--------------
d------6h7-----------6h7------------
a--8-8----------------------
E----------------------------

--C

e-----------------------------
b-----------------------------
g--------5---------------------
d----------8-8-7-5----------------
a----6h7-----------6h7--------------
E-8-8--------------------------

--Bb--F--C

 #11399  by confusions_prince
 Wed Dec 27, 2006 10:36 pm
Anyone heard the version by the Leaves?

 #11403  by Seriesnuns
 Thu Dec 28, 2006 8:34 am
Thanks you guys you made my day. HAPPY NEW YEARS!

 #11404  by Crazy 9.5 Fingers
 Thu Dec 28, 2006 8:59 am
My favorite version of this tune is Freddie King's on "Freddy King is a Blues Master". Great Rhodes riff in the background. Just flat out nasty goodness.