rukind.com

Grateful Dead Music Forum

A place to talk about the music of the Grateful Dead 

 #3041  by ded1hed
 Fri Jan 20, 2006 7:19 pm
any ideas on how jerry played this one
i got a great version from jg in69
from gdlive
any ideas on chords and little licks he throws in there?

 #4029  by Shaggy
 Sat Mar 11, 2006 3:14 pm
Here's two examples of the first riff of the intro:

E|-------------------------|-----
B|-------7--------7-----5--|-----
G|-------------------------|-----
D|--7/9-----9--7-----7--5--|-----
A|-------------------------|-----
E|-------------------------|-----


or:


E|-------------------------|-----
B|-------9--------7--------|-----
G|-------------------------|-----
D|--7/9-----9--9-----9--7--|-----
A|-------------------------|-----
E|-------------------------|-----


Take it from there, listen to what Jerry does and improv from there...