rukind.com

Grateful Dead Music Forum

A place to talk about the music of the Grateful Dead 

 #6962  by b weird
 Sun Jul 02, 2006 4:37 pm
Code: Select all
Intro

E--0h1p0----------------------------------------------------
B---------3--------1----2--3--------------------------------
G------------2---------------0------------------------------
D---------------3-----2--------0-3-2-----------------------
A-----------------------------------------------------------
E-----------------------------------------------------------



Bdim7 Chord


            Bdim7
  |---|---|---|---|---|     E------------------------
  |   |   |   X   |   |     B-----------3-------3----
  |---|---|---|---|---|     G---------1---------1----
  |   X   |   |   |   |     D------3------------3----
  |---|---|---|---|---|     A---2---------------2----
  |   |   X   |   X   |     E------------------------
  |---|---|---|---|---|
  |   |   |   |   |   |
  |---|---|---|---|---|

 #6964  by Billbbill
 Sun Jul 02, 2006 5:37 pm
Sounds like the studio there, no? Sounds good.

Here's another look

e-----------------------1------
b----3----3----3--------3------
g--2--2-0--0------------2------
d---0----0--3-0-3-2-3-2-0------
a------------------------------
e------------------------------

 #6975  by tigerstrat
 Sun Jul 02, 2006 10:50 pm
E|--------------1--0-------
B|--------3-----------3----
G|-----2-----2-----------2-
D|--0----------------------
A|-------------------------
E|-------------------------(however many times it takes)>>>

E|-----------------------------------------------1--
B|--------3-----------3-----------3--------------3--
G|-----2-----2--0--------0-----0-----0-----0-----2--
D|--0--------------0--------3-----------2--------0--
A|--------------------------------------------0-----
E|--------------------------------------------------

came close to a band breakout of this tune the other night but it veered into GDTRFB, which was good because it turned out to be the closer as it was 230 and the staff were cutting us off. China Doll is no song to close with.

 #6980  by b weird
 Mon Jul 03, 2006 9:23 am
Yes that intro comes from Mars Hotel. Thanks for the other intos too they sound pretty good. Also try the Bdim7 chord instead if the Bo7 chord I think it sounds better.

 #6986  by caspersvapors
 Mon Jul 03, 2006 2:08 pm
o7 is just another way of saying dim7

 #6988  by b weird
 Mon Jul 03, 2006 2:29 pm
Cool I didn't know that thanks.