rukind.com

Grateful Dead Music Forum

A place to talk about the music of the Grateful Dead 

 #99656  by Counterstriker
 Sun Jun 19, 2011 7:40 am
I've been listening to this song a whole lot lately, I'm trying to use more halfbends like jerry and this song has alot of them, it's just Jerry places them so well in a song it's so hard to mimic that without copying the exact solo, which i don't want to do. Is there certain notes in a scale that he tends to half bend up to?

http://www.youtube.com/watch?v=RZ2uzcvW ... re=related
 #103311  by Seth Fleishman
 Tue Sep 13, 2011 5:24 am
In a blues like that, it's always safe to bend half step up to the root, the major 3rd, or the dominant 7. These note choices can be heard in the solo you posted.

So over E, using Em pent (with extra stuff added), 12th position


maj3rd dom7 root
---------------------------------------------------------
------------------14b(15)-------------16b(17)---------
----12b(13)----------------------------------------------
----------------------------------------------------------
------------------------------------------------------------
------------------------------------------------------------


Over the A, right in the same neighborhood, aligned to 12th position A barre chord

Maj3rd dom7 root
------------------14b(15)--------------------------------------
----13b(14)----------------------------------------------------
------------------------------------13b(14)----------------------
-----------------------------------------------------------------
-----------------------------------------------------------------
-----------------------------------------------------------------


Enjoy

Seth
www.gratefulguitarlessons.com
 #104343  by Griz
 Fri Oct 14, 2011 8:41 pm
Then there is this philosophy.....

"If you hit a wrong note, you're only one fret away from a good one...."


Griz
 #104439  by tcsned
 Tue Oct 18, 2011 11:26 am
or . . . no note is wrong if you get off it quick enough

or . . . if you play a wrong note, play it again - it'll sound intentional or like jazz :lol:
 #105170  by tiffcheese
 Fri Nov 11, 2011 10:48 pm
tcsned wrote: if you play a wrong note, play it again - it'll sound intentional or like jazz :lol:
:lol: I think phish does this
 #106991  by Mr.Burns
 Sat Dec 24, 2011 7:28 am
tcsned wrote:or . . . no note is wrong if you get off it quick enough

or . . . if you play a wrong note, play it again - it'll sound intentional or like jazz :lol:
The rightness or wrongness of a note is relative, it is determined by the notes surrounding it. So a "wrong" note is not set in stone until you play another note to define it as "wrong".

As for Phish, I was not aware those guys made mistakes... :shock: LOL