rukind.com

Grateful Dead Music Forum

A place to talk about the music of the Grateful Dead 

Place for the rest of the music
 #3553  by amyjared
 Tue Feb 21, 2006 4:25 pm
Anyone have the tab for this? I would prefer the Traffic version. Thanks for any help!!

 #21118  by High Peaks
 Mon Jul 23, 2007 11:02 am
Anyone? Bueller?

Thanks

 #21120  by shakedown_04092
 Mon Jul 23, 2007 11:30 am
Found a Phish version, hope it helps:
Code: Select all
These are the three licks used in the song:

Lick #1

E-------------------------------------
B-10-9-8------------------------------
G---------9-8-7-----------------------
D----------------9-8-7----------------
A-------------------------------------
E-------------------------------------

Lick #2

   E   A   C#m   F#m
E-------------------------------------
B------10---------7-------------------
G---9--------6------------------------
D-------------------------------------
A-------------------------------------
E-------------------------------------

Lick #3

E-------------------------------------
B-------10----10----10-----10---------
G-----8-----8-----8------8-----8------
D---9-----9-----9------9-----9---7----
A-------------------------------------
E-------------------------------------


Lick #1

E           D             A      C
Sometimes I feel like I'm fading away
E                 D            A          C
You're looking at me, I've got nothing to say
E             D              A              C
Don't make me angry with the games that you play
D               A           E
Either light up or leave me alone

Lick #1

E              D         A         C
You walk in my room, you lie in my bed
E             D       A C
You open your mouth, shoot someone dead
E        D             A         C
All of a sudden you're inside my head
D               A           E
Either light up or leave me alone

Lick#1

Lick#2 X3

Lick #3

JAM (E)

Lick #2 X3

Lick #3

E           D             A         C
Spending my bread like it grew on a tree
E                D                 A             C
You're trying to tell me 'bout the birds and the bees
E                     D              A         C
The skirt that you're wearing is way past your knees
D               A           E
Either light up or leave me alone

Lick #1

E             D     A              C
You're up all night preaching your mind
E                D                 A      C
Come home in the morning with your latest find
E                 D             A               C
I'm gonna have to lay it to you straight on the line
D (hold)
Either light up
A (hold)
or leave me
E
alone

JAM (E) or (E,G,A,B)
 #65459  by amyjared
 Sun Sep 06, 2009 4:15 pm
I finally got this song tabbed but it's a pdf, so if anyone wants it, please pm me.