rukind.com

Grateful Dead Music Forum

A place to talk about the music of the Grateful Dead 

Place for the rest of the music
 #2271  by willstow
 Sun Dec 04, 2005 1:29 pm
If anyone knows the chords I would really love to play this song for my girlfriend. It's a sweet one.
 #2273  by motto
 Sun Dec 04, 2005 3:25 pm
Here's a little bit of a half-assed attempt

Intro:
E------------------------------------------------------------
B------------------------------------------------------------
G--------8------8--9-----8h9p8-------------------------------
D-----9-----11------------------9----------------------------
A--9------------------9------------11------------------------
E------------------------------------------------------------

and after the last note repeat the phrae immediately. Listen to a recording. I am basing this off the closing of winterland dvd...though I haven't listened for some time...it could be way off!!

After intro...

The finishing lick (which recurs over the song)...Single note

A--9--9--7--6------------------------------------------------

or...

E------------------------------------------------------------
B------------------------------------------------------------
G--10-10-9--8------------------------------------------------
D--9--9--9--9------------------------------------------------
A------------------------------------------------------------
E------------------------------------------------------------

Or use the chords...

E--9--9--7--7------------------------------------------------
B--11-11-9--7------------------------------------------------
G--11-11-9--8------------------------------------------------
D--11-11-9--9------------------------------------------------
A--9--9--7--9------------------------------------------------
E--9--9--7--7------------------------------------------------

I don't really have the verse but it starts with a B,,,has an F# in there...a C#m...

Try to get more....
 #2274  by motto
 Sun Dec 04, 2005 3:33 pm
And the jerry riff as the song ends....

E--14--12--11------12--11----------11------------------------
B--------------14----------14--12------14--12--11--14--12--11
G------------------------------------------------------------
D------------------------------------------------------------
A------------------------------------------------------------
E------------------------------------------------------------

E------------------------------------------------------------
B------12--11------------------------------------------------
G--13----------13--11----------------------------------------
D----------------------13------------------------------------
A------------------------------------------------------------
E------------------------------------------------------------

It's played pretty fast. No timing info in this post, but each note is played one after another...without rests or anything. Again, listen to the recording...