rukind.com

Grateful Dead Music Forum

A place to talk about the music of the Grateful Dead 

Place for the rest of the music
 #35231  by pharewellphish
 Sat Jan 19, 2008 3:03 pm
well im snowed in so i decided to figure out some moe. tunes today... heres blue jean pizza off the conch

rob starts with: Db Eb B
Db Eb B Db
Db Eb B Db E

Code: Select all
(/) Slide Up  () Slide Down  (h) Hammer On  (p) Pull Off  (b) Bend (r) Release (v) Vibrato
     0:30              
E|---------------------------------------------------------------------------------------------------
B|--------10p8--------10p8------15p12--17p12--12p8------8--10p8--------------------------------------
G|---------------------------------------------------------------10--------9/10--9/10-----12------9-10-12
D|--8/10--------8/10-------------------------------------------------------------------9-------------
A|---------------------------------------------------------------------------------------------------
E|---------------------------------------------------------------------------------------------------
							http://www.guitartabcreator.com
^thats not 100% right but it gets it done







Code: Select all
(/) Slide Up  () Slide Down  (h) Hammer On  (p) Pull Off  (b) Bend (r) Release (v) Vibrato

E|---------------------------------------3--
B|--------5------------------------------3--
G|--------5------------------------------4--
D|--------5------------------------------5--
A|--0--2--3------------------------5--7--5--
E|---------------------------------------3--
         i was thinking about your face    just a minuite ago							http://www.guitartabcreator.com

the verse just does the C G thing above the whole time
then at 1:30:
Code: Select all
(/) Slide Up  () Slide Down  (h) Hammer On  (p) Pull Off  (b) Bend (r) Release (v) Vibrato

E|-------------------------------------------------------
B|-------------------------------------------------------
G|--7--7--7------9--9--9------5--5--5----4---------------
D|-------------------------------------------------------
A|--5--5--5------7--7--7------3--3--3----2---------------
E|-------------------------------------------------------

I can re-    mem-ber the   warm sum-mer  nights
							http://www.guitartabcreator.com
Code: Select all
(/) Slide Up  () Slide Down  (h) Hammer On  (p) Pull Off  (b) Bend (r) Release (v) Vibrato

E|-------------------------------------------------------
B|-------------------------------------------------------
G|--7--7--7------9--9--9------5--5--5----4---------------
D|-------------------------------------------------------
A|--5--5--5------7--7--7------3--3--3----2---------------
E|-------------------------------------------------------
	drivin so fast....					http://www.guitartabcreator.com
Code: Select all
(/) Slide Up  () Slide Down  (h) Hammer On  (p) Pull Off  (b) Bend (r) Release (v) Vibrato

E|---------------------------------------------------------
B|---------------------------------------------------------
G|--7--7--7------9--9--9------5--5--5----4----2----4----6--
D|---------------------------------------------------------
A|--5--5--5------7--7--7------3--3--3----2----0----2----4--
E|---------------------------------------------------------
	i can remmeber 3 minuites gone away						http://www.guitartabcreator.com
[/quote]

then another verse and chorus

then robs intro. and the solo that starts out similar to the intro solo

then the chorus x2

 #35232  by BuddhaG
 Sat Jan 19, 2008 3:14 pm
hey man, where are you at that it is snowing bad enough to make you want to learn moe. tunes?






(apology to those offended by this post)

 #35237  by Hajimemashite!!!
 Sat Jan 19, 2008 3:47 pm
BuddhaG wrote:hey man, where are you at that it is snowing bad enough to make you want to learn moe. tunes?






(apology to those offended by this post)
hahahahahahhahahahhahahahaha

 #35241  by CaptainTrips
 Sat Jan 19, 2008 3:54 pm
Ha, well I for one appreciate it! Thanks man. :cool:

 #46051  by pharewellphish
 Sat Jul 12, 2008 8:58 pm
if theres any specific moe. songs anybody wants up here let me know and i will see what i can do. ive worked out a lot of them its just a pain in the ass to type them up and post them

 #46075  by hesgone95
 Sun Jul 13, 2008 8:56 pm
hajimemashite I fucking dig the jerry/che picture you have as your signature...classic. where the hell did you find it?

 #46171  by nicolasalk
 Tue Jul 15, 2008 5:06 pm
pharewellphish wrote:if theres any specific moe. songs anybody wants up here let me know and i will see what i can do. ive worked out a lot of them its just a pain in the ass to type them up and post them
LOST ALONG THE WAY

pleaaasee!!!

thank you