rukind.com

Grateful Dead Music Forum

A place to talk about the music of the Grateful Dead 

Place for the rest of the music
 #18987  by b weird
 Tue Jun 26, 2007 6:24 pm
Hey does anyone have the intro for this song? I found the chords easy enough but no-one has the lead intro. If anyone wants the chords don't be afraid to ask. Peace.

 #19016  by d-v-s
 Wed Jun 27, 2007 1:58 am
on the version i have - i think it's the studio version - the intro sounds like this:


E|-------------------------
B|-------------------------
G|-------------------------
D|-------5---------5h7-----
A|--5h7-------5h7----------
E|-------------------------

repeat twice and then start the song

 #19017  by d-v-s
 Wed Jun 27, 2007 2:06 am
the lick i can't figure is the one that comes after "a drunkards dream if I ever did see one".

 #19075  by CaptainTrips
 Wed Jun 27, 2007 11:38 am
this is an original I use and came up with myself . . . It aint perfect but it works for my purposes
Code: Select all
|----------------------------------------------------------|
|---------------------------5---5---5-----------7b--5~-----|
|---------------------------5---5---7p5---5-----7b--5~-----|
|------5---5--7p5---5---5h7---7--------7-----7----------7~-|
|--5h7---7--------7----------------------------------------|
|----------------------------------------------------------|