rukind.com

Grateful Dead Music Forum

A place to talk about the music of the Grateful Dead 

Place for the rest of the music
 #13000  by GratefulFloyd
 Tue Feb 20, 2007 2:37 pm
anybody know the chords for this song off "Birth of the Dead"? i love it, and it doesnt sound like it'd be too hard to play. any help is much appreciated, thanks!

 #13006  by chuck
 Tue Feb 20, 2007 3:38 pm
i love this song too and have never seen a tab for it. the basic structure is typical 12 bar blues in the key of A. definately not perfect but heres an idea of the rhythm.


A D A D D D
E|-----------------------------
B|--------------------7--7--7--
G|--6-----------------7--7--7--
D|--7-----7-----------7--7--7--
A|--7--4--5--4--7--4--5--5--5--
E|--5-----------5--------------

D G D G G G
E|---------------------------------
B|----------------------12--12--12-
G|--11------------------12--12--12-
D|--12-----12-----------12--12--12-
A|--12--9--10--9-12--9--10--10--10-
E|--10-----------10----------------