rukind.com

Grateful Dead Music Forum

A place to talk about the music of the Grateful Dead 

Place for the rest of the music
 #12745  by st. stephen
 Wed Feb 14, 2007 8:34 am
at the tab archive it's writen down as "b7". thats one of the most beautiful parts in stella blue. thats another way:
i took it directly from the grateful dead movie, so it should be correct ( because you can see him playing it)
(/) Slide Up () Slide Down (h) Hammer On (p) Pull Off (b) Bend (r) Release (v) Vibrato
...just a dream
E|--------------------------0------------------------------
B|--------------------------0------------------------------
G|-----3b4v-let-ring-4r3----1------------------------------
D|--4-----------------------2------------------------------
A|--------------------------2--------------2--4--6--7v-----
E|--------------------------0------------------------------ stella blue......

 #12769  by BlobWeird
 Wed Feb 14, 2007 2:16 pm
hmm without guitar in hand im gonna post the way I like to play it.

E|----------------------
B|----------------------
G|----------------------
D|-----8b9v--9r8--7p6---
A|--9-----------------7-
E|----------------------

For a very slight variation that Garcia plays you can hit the first note 3 times (that being the F#-9th fret on A string)