Page 1 of 1

Tab

PostPosted:Thu Jul 27, 2006 8:29 pm
by jck_strw
A
Well my mama told ...
_______D__________________________A
Now my mama told me ...
_______E
Well I shouldn't ...
__________D___________________A
Tryin' to sing ...


Sorry, shouldn't have posted the complete lyrics. You get the idea though.

The Lyrics Police may nab me. ;)

PostPosted:Thu Jul 27, 2006 8:33 pm
by Benthegoodbum
Much appreciated man. What a tune!

PostPosted:Fri Jul 28, 2006 8:51 am
by HOWEYMAN
Thanks a bunch. Going to practice this one this weekend.

PostPosted:Fri Jul 28, 2006 10:38 am
by ebick
Here's what I have for an intro riff.
Code: Select all
E-----------------------------------------------------------
B-----------------------------------------------------------
G--2-2-----------2-2-0--------------------------------------
D--2-2---2-4-4---2-2---4-2-2---2----------------------------
A----------0-0---------------4------------------------------
E-----------------------------------------------------------

E-----------------------------------------------------------
B-----------------------------------------------------------
G----------------2--2---------------------------------------
D--2------2-2-4--2--2--4--2--2-----2------------------------
A--0--3h4-----------------------4---------------------------
E-----------------------------------------------------------
And one other riff I have
Code: Select all
E-----------------------------------------------------------
B--5^7--5---------------------------------------------------
G----------6\4---2-2----------------------------------------
D-----------------------------------------------------------
A-----------------------------------------------------------
E-----------------------------------------------------------

PostPosted:Mon Jul 31, 2006 9:15 am
by tigerstrat
that recurring riff looks exactly as I make it, but the intro I have more (or less) as:

E|-------------------------------------
B|-------------------------------------
G|--2-2--2--------2-2------------2-----
D|--2-2--2-4-4--2-2-2-5-4-2------2-----
A|---------0-0--0-----------3h4--0-----
E|-------------------------------------