rukind.com

Grateful Dead Music Forum

A place to talk about the music of the Grateful Dead 

 #55391  by mutant_dan
 Thu Jan 22, 2009 9:52 pm
(Edited to reflect ebicks current interpretation of Bob's intro)

From Michael Barnett over at Mandolincafe.com

Michael had this to say:

Here ya go. I loosely transcribed this from Ed Bick's fantastic Grateful Dead page, http://www.rukind.com. All kinds of great GD stuff there, including lots of GD chords and Tabs for Guitar.

Code: Select all
Jerry Intro

E-----------------------|-----------------------------
A-----------------------|----------------------------
D------5-----0--3---5--|------5------0--3---0--3--0-
G--0------5------------|--0-------5-----------------

E-----------------------|----------------------------
A-----------------------|----------------------------
D------5----0--3---5--|------5------0--3---0--3--5-
G--0------5------------|--0-------5-----------------

Bob Intro

E-----------------------|----------------------------
A---2---3p2--0--------|--2--2h3--5----------------
D----------------5------|----------------------------
G----------------------|----------------------------


E----------------------|--------1-----3h5--7------
A---2---3p2---0------|----3------------------------
D----------------------|--7--------------------------
G----------------------|----------------------------

E----------------------|----------------------------
A---2---3p2--0-------|--2h3--5--5----------------
D----------------5----|---------------------------
G----------------------|---------------------------

E----------------------|--------1-----3h5--3------
A---2---3p2---0------|----3------------------------
D----------------------|--7--------------------------
G----------------------|----------------------------
If you get confused, lsiten to the music play...