rukind.com

Grateful Dead Music Forum

A place to talk about the music of the Grateful Dead 

 #22873  by XxRouninxX
 Thu Aug 23, 2007 7:23 pm
okay this is my favorite browneyed women and the lead is nuts. I took the liberty to start tabbing it out.

Heres the intro, ill have the lead probably in two seperate parts over the next few days.


|-----------------------------------------------------------------
|-------------------------12-14p12--------------------------------
|--------------------11/13--------13-----12p11p9----9-------------
|----9----9-10-11--------------------------------11---11-9-----9--
|-11---11---------------------------------------------------11----
|-----------------------------------------------------------------


|-----------------------------------------------------------------
|-----------------------------------------------------------------
|-----------------------------------------------------------------
|-------9-------------------------------------------9-------------
|--9h11---11---11p10p9----7----------7-7----7--9/11---11/9-9p7---7
|-----------------------9---9--7h8h9--9---9-------------------9---
Last edited by XxRouninxX on Thu Aug 23, 2007 8:29 pm, edited 1 time in total.

ps

 #22875  by XxRouninxX
 Thu Aug 23, 2007 7:32 pm
sorry id give you some kind of rythm to it but im just not an experienced tabber, watch the phrasing, cuz there are alot of ntoes in this solo that aren't played, but just feel like they were in the flurry somewhere, and those are the pauses between phrases, god jerry i love you, or jerry god i love you however it goes

 #22916  by BlobWeird
 Fri Aug 24, 2007 10:40 am
Dont have a guitar in hand but I have that DP along with like every other DP lol. And it looks to be pretty good. Cant wait to try it out. Thanks man