rukind.com

Grateful Dead Music Forum

A place to talk about the music of the Grateful Dead 

 #61615  by GratefulPat
 Mon Jun 01, 2009 8:55 pm
i cant figure it out! my ear is off a little and i cant get it right... i tried to pm vic about it and not sure if it worked... anyone who can give a good accurate tab or video? much appreciated in advance
 #61616  by Billbbill
 Mon Jun 01, 2009 10:23 pm
Here's how I do it Pat

(/) Slide Up (\) Slide Down (h) Hammer On (p) Pull Off (b) Bend (r) Release (v) Vibrato

E|--------------------------------------------
B|-----------10-----10--10--------------------
G|--9-----9--9-h11------9-h11--9--9--------7----7----7
D|--9h11--------------------------9h11--9--7h9--7h9--7--------2--4--2
A|--------------------------------------------------------3h4---------4--2--0
E|--------------------------------------------
http://www.guitartabcreator.com

The hammers are quick
 #61697  by GratefulPat
 Tue Jun 02, 2009 11:48 am
YES!!!!!!!!!!!!!!!!!!!!!!!!!!! THANK YOU BILL :cool:
 #61719  by jlg327
 Tue Jun 02, 2009 3:58 pm
Apparently the video I wanted to link has diabled the "embed" function.

http://www.youtube.com/watch?v=ZZIEAqg5 ... re=related

That's the link. It's his own version of the song, but I always liked his take on songs and the way he taught them bit by bit.

Oh well...
Last edited by jlg327 on Tue Jun 02, 2009 5:15 pm, edited 1 time in total.
 #61720  by amyjared
 Tue Jun 02, 2009 4:49 pm
I'm assuming this is in the key of A, like the Band and not G, like most people play it in? Anyhow, I always did it just like Bill, but at the end, instead of the 3/4fret hammeron and the 2nd/4th fret, I did this (see below) and then landed on the A chord because I was already on these frets

|-----------------
B|-----------------
G|-----------------
D|--7--7----------7-----
A|--7--7--9(h)-----9--
E|-----------------
 #61724  by Billbbill
 Tue Jun 02, 2009 5:43 pm
amyjared wrote:I'm assuming this is in the key of A, like the Band and not G, like most people play it in? Anyhow, I always did it just like Bill, but at the end, instead of the 3/4fret hammeron and the 2nd/4th fret, I did this (see below) and then landed on the A chord because I was already on these frets

|-----------------
B|-----------------
G|-----------------
D|--7--7----------7-----
A|--7--7--9(h)-----9--
E|-----------------

Ha! you're probably closer than me on the end. I jerryize it! 8)
 #61750  by amyjared
 Wed Jun 03, 2009 9:33 am
My band does it and I do the intro, but we do more of the Band version than the boys and we do it in G. I also use that riff to lead into each verse, after playing the chord coda.

|-----------------
B|-----------------
G|-----------------
D|--7--7-------7-----
A|--7--7--9(h)-------9--
E|-----------------