rukind.com

Grateful Dead Music Forum

A place to talk about the music of the Grateful Dead 

 #17060  by shakedown_04092
 Sun May 27, 2007 6:13 pm
Figured I'd post them since they're no longer here:
Code: Select all
Waiting For A Miracle


A           B                       E     A  E
Working and waiting in the hot sun
A                        B                      E    A  E
With all the rich saints, and the fallen ones
A           F#7                      E      C#m
Working and waiting for the night to come
                      A                     B
And the waiting for a, and the waiting for a
                      E               A  E
And the waiting for a miracle


Somewhere out there is a land that's cool
Where peace and balance are the rule
Working for the future like some kind of mystic jewel

And the waiting for a, and the waiting for a
And the waiting for a miracle

C#m                               B
You wipe the palm of your hand on the grimy pane
                          F#m
In the hopes that you can see  (when you're waiting)
C#m                           B
Stand up tall, pretend you're strong
                          F#m
In the hopes that you can be  (when you're waiting)
C#m                               B
Like the one's that cry, like the ones that die
                  F#m                A    A/G#
Trying to set the angel in us free
        A/F#    A/E   A                      B
And the waiting for a, and the waiting for a
                      E           A  E
And the waiting for a miracle


Scuffle for a nickel, struggle for a dime
Forget about the past, leave your worries behind
Home come the future has to take such a long, long time?

When you're waiting for a, when you're waiting for a
When you're waiting for a miracle			(play chorus 2x)


E-INTRO:-----------------0---0---0---0----------------------
B------------------------2---2---2---2----------------------
G------------------------2---2---2---2----------------------
D------------------------2---2---2---2----------------------
A--------------------0---0---0---0---0--0--0-----0--1--2----
E-0-2-0-2--0--2--4----------------------------4-------------

E---2---2--2--2-----------0--0--0--0----0--0--0-------------
B---4---4--4--4-----------0--0--0--0----2--2--0-------------
G---4---4--4--4-----------1--1--1--1----2--2--1-------------
D---4---4--4--4-----------2--2--2--2----2--2--2-------------
A---2---2--2--2-----------2--2--2--2----0--0--2-------------
E-----------------4---0---0--0--0--0----------0-------------