rukind.com

Grateful Dead Music Forum

A place to talk about the music of the Grateful Dead 

 #687  by Conan
 Sat Aug 21, 2004 8:41 pm
So Many Roads
7-9-95?Not the box set version--

Intro

E---2^3--3---2---3^2---------------------------------------------------------------------------------------
B---------------------------1----------3--------- 5---------5------------5--------------6----------8------8
G---------------------------------------------------------------------------------------------------------------
D---0-----0---0---0-----------2/3------ 3/5---------5---------3/5----------5/7----------7/8-------8---
A---------------------------3----------------------------------------------------------------------------------
E---------------------------------------------------------------------------------------------------------------

These are the order of the cords? just fill in the rhythm

E-----------6--------1------1------------6-------1-------
B---8------6--------1------3------8-----6-------1-------
G---8------7------- 2------2----- 8-----7------ 2------- Repeat
D---8------8------- 3------0------8-----8------ 3-------
A---6------8--------3------------- 6-----8------ 3-------
E-----------6--------1--------------------6-------1-------

E-----------6--------1------1------1---------------------------- 5----5-----------1--------------
B---8------6--------1------3------1-----1----3------3---5---- 5----6-----3----1-----8---7---
G---8------7------- 2------2----- 2-----0----3------3---5---- 6----7-----3----2-----8---7---
D---8------8------- 3------0------3-----2----3------5---5-----7--- 7-----3----3-----8---7---
A---6------8--------3------------- 3-----3----1------5---3-----7----5-----1----3-----6-- 5---
E-----------6--------1--------------1----------------- 3--------- 5----------------1--------------

Conan Murphy conanmurphy@excite.com

 #4351  by caspersvapors
 Thu Mar 23, 2006 3:52 am
they also strum Dsus and D for the intro
 #37435  by strumminsix
 Sat Feb 09, 2008 2:45 pm
thanks, Conan.

I'll try to format your work:
Code: Select all
E---2^3--3---2---3^2---------------------------------------------------------------------------------------
B---------------------------1----------3--------- 5---------5------------5--------------6----------8------8
G---------------------------------------------------------------------------------------------------------------
D---0-----0---0---0-----------2/3------ 3/5---------5---------3/5----------5/7----------7/8-------8---
A---------------------------3----------------------------------------------------------------------------------
E---------------------------------------------------------------------------------------------------------------

These are the order of the cords? just fill in the rhythm 

E-----------6--------1------1------------6-------1-------
B---8------6--------1------3------8-----6-------1-------
G---8------7------- 2------2----- 8-----7------ 2-------	Repeat
D---8------8------- 3------0------8-----8------ 3-------
A---6------8--------3------------- 6-----8------ 3-------
E-----------6--------1--------------------6-------1-------

E-----------6--------1------1------1---------------------------- 5----5-----------1--------------
B---8------6--------1------3------1-----1----3------3---5---- 5----6-----3----1-----8---7---
G---8------7------- 2------2----- 2-----0----3------3---5---- 6----7-----3----2-----8---7---
D---8------8------- 3------0------3-----2----3------5---5-----7--- 7-----3----3-----8---7---
A---6------8--------3------------- 3-----3----1------5---3-----7----5-----1----3-----6-- 5---
E-----------6--------1--------------1----------------- 3--------- 5----------------1--------------